Your One-Stop Source For
Music Lyrics
Bass and Guitar Tabs
and More...
Music Lyrics Bass and Guitar Tabs

 

The Tabs Are Below

Learn To Read Tab
Chords Handbook
Corrections & Additions
Get Official Tab
Hoobastank tabs @ 911Tabs

song name :Hello Again

Band: Hoobastank

 

drop d tuning

 

this is not right but it fits and sounds pretty good and i havent found any

 

other tab for this song.

 

intro

g------------------------------------------------------------------------|

d-----0----0------0-----3-----3------2-----2-----------------------------|

a------------------------------------------------------------------------|

d--0----00----00----33----33----22----22---------------------------------|

 

verse

g---------------------------|---------------------------|

d---------12-----1212-------|----15-------1515----------|

a---------------------------|---------------------------|

d----12------12------12--x2-|15--------15---------15-x2-|

 

g-------------------------------|

d------14--------1414-----------|

a-------------------------------|

d--14------14-----------14-x2---|

 

chorus

g-----------------------------------------------------------------------|

d------0----00----------3----33----------2------22----------------------|

a-----------------------------------------------------------------------|

d---0----0------0----3-----3-----3----2------2-------2------------------|

 

other bit

g--------------------------------|

d--------------------------------|

a--------------------------------|

d---0----0----00----00----00-----|

 

u can add bits 2 it and da order isnt hard 2 work out.hav fun. any

 

questions email me at barrysnake@hotmail.com

 

 

Return to my Hoobastank bass tabs page

The Tablature is Copyright its respective owners.

Sign Up For My Newsletter
Subscribe | Unsubscribe

Site Map | Disclaimer | Privacy Policy | Media Kit | Submissions/Corrections

Website © 2000-2014 mattsmusicpage.com. All rights reserved.

Legal & DMCA: Matt's Music Page has been providing lyrics and tabs in a legal way, paying royalties each year to a few organizations. Then, all lyrics and tabs were removed from the site. Now, there's a new owner to the site, which purchased it August 26, 2014, and he is in negotiation to obtain licensing from BMI at the moment. If you have a specific DMCA request -- please do not hesitate to contact me via the contact button on top. I will do my very best to keep this site fully legal.

Get our toolbar!

 

Hard Rock Pin Las Vegas 4th of july red white and blue guitar
$5.0
Hard Rock Pin Las Vegas 4th of july red white and blue guitar picture


Hard Rock Pin Hollywood Fl Bell Girl with dice luggage and guitar
$5.0
Hard Rock Pin Hollywood Fl Bell Girl with dice luggage and guitar picture


Hard Rock Pin Las Vegas King of Clubs Guitar rare only 3 lines of info on back
$5.0
Hard Rock Pin Las Vegas King of Clubs Guitar rare only 3 lines of info on back picture


Hard Rock Pin Edmonton guitar pin
$5.0
Hard Rock Pin Edmonton guitar pin picture


Lladro Guitar Boy #4614 - Beautiful Piece of Lladro
$109.0
Lladro Guitar Boy #4614 - Beautiful Piece of Lladro picture