Your One-Stop Source For
Music Lyrics
Bass and Guitar Tabs
and More...
Music Lyrics Bass and Guitar Tabs

 

The Tabs Are Below

Learn To Read Tab
Chords Handbook
Corrections & Additions
Get Official Tab
Hoobastank tabs @ 911Tabs

Band: Hoobastank or Hoobustank, whatever your pleasure

Song: Can I Buy You A Drink

Album: They Sure Don't Make Basketball Shorts Like They Used To

Standard Tuning

 

Start with a slide down the A or E string

 

Intro/Chorus

G-----5---------------------------------------------------------------

D---5---5-5h6p5-4/5---------3-------3-1-0---3-1-0-------0----------0--

A-3-------------------2-5-6---6-5-3-------3-------3---2---2-----1-----

E-------------------3-------------------------------3--------3--------

 

 

Verse (play the X's on top of the snare) Play 2X

G-----x-5-----x-5-----x-5-----x-5---------------------------

D---5-------5-------5-------5-----1/3-------3-3-------------

A-3-------3-------3-------3-----------3---------3-3---------

E---------------------------------------4-1---------4-4-1-1-

 

G-------------------------------------x-5-----x-5-----x-5-----x-5-

D-0-0-0-0-0-0-0-0-------------------5-------5-------5-------5-----

A-----------------4-4-4-4-4-4-4-4-3-------3-------3-------3-------

E-----------------------------------------------------------------

2nd Time don't play this part

 

Bridge

G---5---7---8-------------------

D-------------------------------

A-3---5---6---2-----------------

E----------------1-1-3-3-4-4-0--

 

 

Return to my Hoobastank bass tabs page

The Tablature is Copyright its respective owners.

Sign Up For My Newsletter
Subscribe | Unsubscribe

Site Map | Disclaimer | Privacy Policy | Media Kit | Submissions/Corrections

Website © 2000-2014 mattsmusicpage.com. All rights reserved.

Legal & DMCA: Matt's Music Page has been providing lyrics and tabs in a legal way, paying royalties each year to a few organizations. Then, all lyrics and tabs were removed from the site. Now, there's a new owner to the site, which purchased it August 26, 2014, and he is in negotiation to obtain licensing from BMI at the moment. If you have a specific DMCA request -- please do not hesitate to contact me via the contact button on top. I will do my very best to keep this site fully legal.

Get our toolbar!