Your One-Stop Source For
Music Lyrics
Bass and Guitar Tabs
and More...
Music Lyrics Bass and Guitar Tabs

 

The Tabs Are Below

Learn To Read Tab
Chords Handbook
Corrections & Additions
Get Official Tab
Green Day tabs @ 911Tabs

 

Westbound Sign

Green Day

 

 

Intro:

1--------------------------|-------------------------|

2--------------------------|-------------------------|

3------------------9-9-9-9-|-----------------9-9-9-9-|

4--9-9-9-9-9-6-6-6-9-9-9-9-|-9-9-9-9-9-6-6-6-9-9-9-9-|

5--9-9-9-9-9-6-6-6-7-7-7-7-|-9-9-9-9-9-6-6-6-7-7-7-7-|

6--7-7-7-7-7-4-4-4---------|-7-7-7-7-7-4-4-4---------|

 

Verse:

1-----------------------------------------------------------------|

2-----------------------------------------------------------------|

3---4---4---4---4-------------------------------------------------|

4---4---4---4---4---4---4---4---4---6---6---6---6---2---2---2---2-|

5---2---2---2---2---4---4---4---4---6---6---6---6---2---2---2---2-|

6-------------------2---2---2---2---4---4---4---4---0---0---0---0-|

boxed up all of her favorite things, sold the rest ata rainy yard sale

big plans and leaving friends and a Westbound sign

weighed out her choices on a scale, prevaling nothing made sense

just transportation and a blank decision she's taking

 

Chorus:

1---------------------------------------------------------------------

2---------------------------------------------------------------------

3------------------9-9-9-9-----------------9-9-9-9-9---------------9-9

4--9-9-9-9-9-6-6-6-9-9-9-9-9-9-9-9-9-6-6-6-9-9-9-9-9-9-9-9-9-6-6-6-9-9

5--9-9-9-9-9-6-6-6-7-7-7-7-9-9-9-9-9-6-6-6-7-7-7-7-9-9-9-9-9-6-6-6-7-7

6--7-7-7-7-7-4-4-4---------7-7-7-7-7-4-4-4---------7-7-7-7-7-4-4-4----

off taking off

 

1-----------------------------------------------------|

2-----------------------------------------------------|

3-9-9-----------------9-9-9-9-----------------9-9-9-9-|

4-9-9-9-9-9-9-9-6-6-6-9-9-9-9-9-9-9-9-9-6-6-6-9-9-9-9-|

5-7-7-9-9-9-9-9-6-6-6-7-7-7-7-9-9-9-9-9-6-6-6-7-7-7-7-|

6-----7-7-7-7-7-4-4-4---------7-7-7-7-7-4-4-4---------|

taking off taking off

 

Second Verse (Do same chords as you did on 1st verse):

 

no time and no copping out, she's burning daylight and petrol

black out and review mirror heading westward on

strung out on confusion road and ten minutes nevous break downs

Xanax a beer for thought, and she's determined, she's taking off (Then

it goes back into the Chorus)

 

Bridge:

 

1--------------------------------------------------

2--------------------------------------------------

3--------------2--2--2--2--------------4--4--4--4--

4--4--4--4--4--2--2--2--2--2--2--2--2--4--4--4--4--

5--4--4--4--4--0--0--0--0--2--2--2--2--2--2--2--2--

6--2--2--2--2--------------0--0--0--0--------------

is this salvation or an escape from discontent

will she fling her name in California cement

punched out of grind, they punched her one too many times

 

1--------------------------------------------------|

2--------------------------------------------------|

3--------------2--2--2--2--------------------------|

4--4--4--4--4--2--2--2--2--2-2-2-2-2-2-2-2-2-2-2-2-|

5--4--4--4--4--0--0--0--0--2-2-2-2-2-2-2-2-2-2-2-2-|

6--2--2--2--2--------------0-0-0-0-0-0-0-0-0-0-0-0-|

is tragedy 2,000 miles away... she's taking off (Then it goes

into these chords)

 

1------------------------------------------

2------------------------------------------

3--4-4-4-4-4-------------------------------

4--4-4-4-4-4-4-4-4-4-4-6-6-6-6-6-2-2-2-2-2-

5--2-2-2-2-2-4-4-4-4-4-6-6-6-6-6-2-2-2-2-2-

6------------2-2-2-2-2-4-4-4-4-4-0-0-0-0-0- X4 times

 

(On the 4th time you do these chords, BJ says "Alright!" near the end)

 

Outro:

 

1--------------------------|

2--------------------------|

3------------------9-9-9-9-|

4--9-9-9-9-9-6-6-6-9-9-9-9-|

5--9-9-9-9-9-6-6-6-7-7-7-7-|

6--7-7-7-7-7-4-4-4---------| X4 times

 

then, you and on a 799xxx

 

 

--------------------------------------------------------------------------------

Westbound Sign

Green Day

 

Intro:

e

B

G ----------------9-9-9*|

D --9-9-9-9--6-6--9-9-9 | (repeat 4X)

A --9-9-9-9--6-6--7-7-7*|

E --7-7-7-7--4-4------- |

 

Verse:

e

B

G

D --9-9-9-9--4-4-4--4-4--6-6-6-6--2-2-2--2-2*|

A --9-9-9-9--4-4-4--4-4--6-6-6-6--2-2-2--2-2 |

E --7-7-7-7--2-2-2--2-2--4-4-4-4--0-0-0--0-0*|

 

 

Return to my Green Day tabs page

The Tablature is Copyright its respective owners.

Sign Up For My Newsletter
Subscribe | Unsubscribe

Site Map | Disclaimer | Privacy Policy | Media Kit | Submissions/Corrections

Website © 2000-2014 mattsmusicpage.com. All rights reserved.

Legal & DMCA: Matt's Music Page has been providing lyrics and tabs in a legal way, paying royalties each year to a few organizations. Then, all lyrics and tabs were removed from the site. Now, there's a new owner to the site, which purchased it August 26, 2014, and he is in negotiation to obtain licensing from BMI at the moment. If you have a specific DMCA request -- please do not hesitate to contact me via the contact button on top. I will do my very best to keep this site fully legal.

Get our toolbar!

 

Hard Rock Pin Las Vegas 4th of july red white and blue guitar
$5.0
Hard Rock Pin Las Vegas 4th of july red white and blue guitar picture


Hard Rock Pin Hollywood Fl Bell Girl with dice luggage and guitar
$5.0
Hard Rock Pin Hollywood Fl Bell Girl with dice luggage and guitar picture


Hard Rock Pin Las Vegas King of Clubs Guitar rare only 3 lines of info on back
$5.0
Hard Rock Pin Las Vegas King of Clubs Guitar rare only 3 lines of info on back picture


Hard Rock Pin Edmonton guitar pin
$5.0
Hard Rock Pin Edmonton guitar pin picture


Lladro Guitar Boy #4614 - Beautiful Piece of Lladro
$109.0
Lladro Guitar Boy #4614 - Beautiful Piece of Lladro picture