Your One-Stop Source For
Music Lyrics
Bass and Guitar Tabs
and More...
Music Lyrics Bass and Guitar Tabs

 

The Green Day Guitar Tabs Are Below

Learn To Read Tab
Chords Handbook
Corrections & Additions
Get Official Tab
Green Day tabs @ 911Tabs

¿Viva La Gloria? (Little Girl)-Green Day

-------------------------------------------------------------------------------

Tabbed by:Stjimmy34

Tuning:Standard

 

It was hard to tab the second guitar in the second verse, so sorry if any of

it is wrong

 

Chorus

 

Guitar 1

e|-----------------------------------------1---1---1-------------------------|

B|-----------------------------------------1---1---1-------------------------|

G|-----------66----66----55----------------1---1---1-------------------------|

D|--33333333-66-66-66-66-55-55-----------3-3-3-3-3-3-------------------------|

A|--33333333-44-66-44-66-33-55-3-1-------3-3-3-3-3-3-------------------------|

E|--11111111----44----44----33-----4-3-1-1-1-1-1-1-1-------------------------|

 

Guitar 2

e|---------------------------------------------------------------------------|

B|---------------------------------------------------------------------------|

G|---------------------------------------------------------------------------|

D|--33333333------------------------------33333333---------------------------|

A|--33333333--44----44----33----3-1-------33333333---------------------------|

E|--11111111-----44----44----33-----4-3-1-11111111---------------------------|

 

Guitar 1

e|---------------------------------------------------------------------------|

B|---------------------------------------------------------------------------|

G|-----------66----66----555555555555----------------------------------------|

D|--33333333-66-66-66-66-555555555555----------------------------------------|

A|--33333333-44-66-44-66-333333333333----------------------------------------|

E|--11111111----44----44-----------------------------------------------------|

 

Guitar 2 It sounds like he's using a whammy bar here

e|---------------------------------------------------------------------------|

B|----------------------------------------------b13~-------------------------|

G|----------------------------------------------b12~-------------------------|

D|----------------------------------------------b10~-------------------------|

A|-----------44----44-----------------3-1------------------------------------|

E|--------------44----44------------------4-3-1------------------------------|

 

 

Verse 2

 

Guitar 1 "Little girl"

e|--1--1--1--1--1--1--1--1----11--1--4--4--44--3--3--3--3--1--1--1--1--------|

B|--1--1--1--1--1--1--1--1----11--1--6--6--66--5--5--5--5--1--1--1--1--------|

G|--2--2--2--2--2--2--2--2----22--2--6--6--66--5--5--5--5--2--2--2--2--------|

D|--3--3--3--3--3--3--3--3----33--3--6--6--66--5--5--5--5--3--3--3--3--------|

A|---------------------------------------------------------------------------|

E|---------------------------------------------------------------------------|

 

Guitar 2

e|---------------------------------------------------------------------------|

B|---------------------------------------------b13~------b6~-----------------|

G|---------------------------------------------b12~------b5~-----------------|

D|---------------------------------------------b10~------b3~-----------------|

A|---------------------------------------------------------------------------|

E|---------------------------------------------------------------------------|

 

Guitar 1

e|--1--1--1--1--4--4--4--4--3--3--3--3--1--1--1--1---------------------------|

B|--1--1--1--1--6--6--6--6--5--5--5--5--1--1--1--1---------------------------|

G|--2--2--2--2--6--6--6--6--5--5--5--5--2--2--2--2---------------------------|

D|--3--3--3--3--6--6--6--6--5--5--5--5--3--3--3--3---------------------------|

A|---------------------------------------------------------------------------|

E|---------------------------------------------------------------------------|

 

Guitar 2

e|---------------------------------------------------------------------------|

B|--b13~------b14~--------b13~------b9~--------------------------------------|

G|--b12~------b13~--------b12~------b8~--------------------------------------|

D|--b10~------b11~--------b10~------b6~--------------------------------------|

A|---------------------------------------------------------------------------|

E|---------------------------------------------------------------------------|

 

Guitar 1

e|--1--1--1--1--4--4--4--4--3--3--3--3--1--1--1--1---------------------------|

B|--1--1--1--1--6--6--6--6--5--5--5--5--1--1--1--1---------------------------|

G|--2--2--2--2--6--6--6--6--5--5--5--5--2--2--2--2---------------------------|

D|--3--3--3--3--6--6--6--6--5--5--5--5--3--3--3--3---------------------------|

A|---------------------------------------------------------------------------|

E|---------------------------------------------------------------------------|

 

Guitar 2

e|---------------------------------------------------------------------------|

B|---------------------------------------------------------------------------|

G|---------------------------------------------------------------------------|

D|--------------------------6-5-3--------------------------------------------|

A|---2-3~---2-3-4~----4-3~--------3------------------------------------------|

E|-1------1-------------------------b1~--------------------------------------|

 

Guitar 1

e|--11--1----4--4--44--3--3--3--3--1--11-------------------------------------|

B|--11--1----6--6--66--5--5--5--5--1--11-------------------------------------|

G|--22--2----6--6--66--5--5--5--5--2--22-------------------------------------|

D|--33--3----6--6--66--5--5--5--5--3--33-------------------------------------|

A|---------------------------------------------------------------------------|

E|---------------------------------------------------------------------------|

 

Guitar 2

e|------------------------------------4~-------------------------------------|

B|-------------------b13~--------b6------------------------------------------|

G|-------------------b12~--------b5-5----------------------------------------|

D|-------------------b10~--------b3------------------------------------------|

A|---------------------------------------------------------------------------|

E|---------------------------------------------------------------------------|

 

 

Chorus

 

Guitar 1

e|-----------------------------------------1---1---1-------------------------|

B|-----------------------------------------1---1---1-------------------------|

G|-----------66----66----55----------------1---1---1-------------------------|

D|--33333333-66-66-66-66-55-55-----------3-3-3-3-3-3-------------------------|

A|--33333333-44-66-44-66-33-55-3-1-------3-3-3-3-3-3-------------------------|

E|--11111111----44----44----33-----4-3-1-1-1-1-1-1-1-------------------------|

 

Guitar 2

e|---------------------------------------------------------------------------|

B|---------------------------------------------------------------------------|

G|---------------------------------------------------------------------------|

D|--33333333----------------------------33333333-----------------------------|

A|--33333333-44----44----33----3-1------33333333-----------------------------|

E|--11111111---44----44----33-----4-3-1-11111111-----------------------------|

 

Guitar 1

e|------------------------------------------------1---1---1---1---1---1---1---1-|

B|------------------------------------------------1---1---1---1---1---1---1---1-|

G|-----------66----66----55555555555555-----------1---1---1---1---1---1---1---1-|

D|--33333333-66-66-66-66-55555555555555---------3-3-3-3-3-3-3-3-3-3-3-3-3-3-3-3-|

A|--33333333-44-66-44-66-33333333333333-3-1-----3-3-3-3-3-3-3-3-3-3-3-3-3-3-3-3-|

E|--11111111----44----44--------------------4-3-1-1-1-1-1-1-1-1-1-1-1-1-1-1-1-1-|

 

Guitar 2

e|---------------------------------------------------------------------------|

B|---------------------------------------------------------------------------|

G|---------------------------------------------------------------------------|

D|--33333333----------------------------333333333333-------------------------|

A|--33333333-44----44----33----3-1------333333333333-------------------------|

E|--11111111---44----44----33-----4-3-1-111111111111-------------------------|

 

 

Bridge Both guitars

e|-------------------------|-------------------------------------------------|

B|-------------------------|-------------------------------------------------|

G|--66666666---------------|-5555555555555555--------------------------------|

D|--66666666-66666666-(x3)-|-5555555555555555--------------------------------|

A|--44444444-66666666------|-3333333333333333--------------------------------|

E|-----------44444444------|-------------------------------------------------|

 

 

Solo

 

Guitar 1 x4

e|---------------------------------------------------------------------------|

B|---------------------------------------------------------------------------|

G|-1010101010101010-88888888-7777------8888-5555-----------------------------|

D|-1010101010101010-88888888-7777-8888-8888-5555-----------------------------|

A|--8-8-8-8-8-8-8-8-66666666-5555-8888-6666-3333-----------------------------|

E|--------------------------------6666---------------------------------------|

 

Guitar 2 x3

e|--------------------8------------------------------------------------------|

B|--6-8-9-8-6~--6-8-9---8-6~--6-8-9-8-6--------8--6~-------------------------|

G|--------------------------------------8~-8-5-------------------------------|

D|---------------------------------------------------------------------------|

A|---------------------------------------------------------------------------|

E|---------------------------------------------------------------------------|

 

Guitar 2

e|--------------------8-----------------b8-b8-b11-b11-b13~-------------------|

B|--6-8-9-8-6~--6-8-9---8-6~--6-8-9-8-6--------------------------------------|

G|---------------------------------------------------------------------------|

D|---------------------------------------------------------------------------|

A|---------------------------------------------------------------------------|

E|---------------------------------------------------------------------------|

 

 

Chorus

 

Guitar 1

e|-----------------------------------------1---1---1-------------------------|

B|-----------------------------------------1---1---1-------------------------|

G|-----------66----66----55----------------1---1---1-------------------------|

D|--33333333-66-66-66-66-55-55-----------3-3-3-3-3-3-------------------------|

A|--33333333-44-66-44-66-33-55-3-1-------3-3-3-3-3-3-------------------------|

E|--11111111----44----44----33-----4-3-1-1-1-1-1-1-1-------------------------|

 

Guitar 2

e|---------------------------------------------------------------------------|

B|---------------------------------------------------------------------------|

G|---------------------------------------------------------------------------|

D|---------------------------------------33333333----------------------------|

A|--33333333-44----44----33----3-1-------33333333----------------------------|

E|--11111111----44----44----33-----4-3-1-11111111----------------------------|

 

Guitar 1

e|---------------------------------------------------------------------------|

B|---------------------------------------------------------------------------|

G|-----------66----66----555555555555----------------------------------------|

D|--33333333-66-66-66-66-555555555555----------------------------------------|

A|--33333333-44-66-44-66-333333333333----------------------------------------|

E|--11111111----44----44-----------------------------------------------------|

 

Guitar 2

e|---------------------------------------------------------------------------|

B|---------------------------------------------------------------------------|

G|-----------------------555555555555----------------------------------------|

D|--33333333-------------555555555555----------------------------------------|

A|--33333333-44----44----333333333333-3-1------------------------------------|

E|--11111111----44----44------------------4-3--------------------------------|

 

 

 

| / slide up

| \ slide down

| h hammer-on

| p pull-off

| ~ vibrato

| + harmonic

| x Mute note

===============================================================================

Return to my Green Day Guitar Tabs page

The Tablature is Copyright its respective owners.

Sign Up For My Newsletter
Subscribe | Unsubscribe

Site Map | Disclaimer | Privacy Policy | Media Kit | Submissions/Corrections

Website © 2000-2014 mattsmusicpage.com. All rights reserved.

Legal & DMCA: Matt's Music Page has been providing lyrics and tabs in a legal way, paying royalties each year to a few organizations. Then, all lyrics and tabs were removed from the site. Now, there's a new owner to the site, which purchased it August 26, 2014, and he is in negotiation to obtain licensing from BMI at the moment. If you have a specific DMCA request -- please do not hesitate to contact me via the contact button on top. I will do my very best to keep this site fully legal.

Get our toolbar!