Your One-Stop Source For
Music Lyrics
Bass and Guitar Tabs
and More...
Music Lyrics Bass and Guitar Tabs

 

The Tabs Are Below

Learn To Read Tab
Chords Handbook
Corrections & Additions
Get Official Tab
Green Day tabs @ 911Tabs

 

Time Of Your Life

Green Day

 

 

Chords:

G :320033

C9 :032033

Dsus4 :000233

Em7 :022033

 

Verse:

 

G C9 Dsus4

|-------3--------------3--------------3------------3------|

|----------3-------------3--------------3------------3----|

|-------------0------------0--------------0-----2------2--|

|---0--------------0--------------2-----------0-----------| 2x

|------------------------------3--------------------------|

|-3--------------3----------------------------------------|

 

Then it repeats, so it almost sounds like it goes C9, Dsus4, G.

So, after the end of the Dsus4 bit, go straight to the G bass note.

 

Em Dsus4 C9 G

|------3------------3-------------3------------3----------|

|--------3------------3-------------3------------3--------|

|----------0-----2------2-------------0------------0------| 2x

|---2----------0---------------2------------0-------------|

|----------------------------3----------------------------|

|-0---------------------------------------3---------------|

 

 

Chorus :

Em G Em G

|------3------------3------------3-----------3------------|

|--------3------------3------------3-----------3----------|

|----------0------------0------------0-----------0--------|

|---2------------0------------2-----------0---------------|

|---------------------------------------------------------|

|-0------------3------------0-----------3-----------------|

 

Em Dsus4

|------3---------3------|

|--------3---------3----|

|----------0---------2--|

|---2----------0--------|

|-----------------------|

|-0---------------------|

 

Lyrics

 

Intro: G C9 Dsus4 G (start singing)

(the fingerpicking here is same as verse (see above))

 

Verse 1:

G C9 Dsus4 G

Another turning point a fork stuck in the road

G C9 Dsus4 G

Time grabs you by the wrist directs you where to go

Em Dsus4 C9 G

So make the best of these days and don't ask why

Em Dsus4 C9 G

It's not a question but a lesson learned in time

 

Chorus

Em G Em G

It's something unpredictable in the end it's right

Em Dsus4 G (where verse riff cuts back in)

I hope you have the time of your life. (Start struming G C Dsus4)

 

Verse 2:

G C9 Dsus4 G

So take the photographs and stillframes in your mind

G C9 Dsus4 G

Hang it on a shelf; it could've been good times (couldn't get this line, fix it if you know it)

 

Em Dsus4 C9 G

Tatoos and memories and asking on trial

Em Dsus4 C9 G

For what it's worth it was worth all the while

 

 

Chorus

 

Instrumental(Strum over Violins)

 

Chorus

 

 

End with Tab 1 and then |---------|

|---------|

|--2------|

|----0----|

|------0--| and end on a G

|---------|

 

 

--------------------------------------------------------------------------------

Time of your live

Greenday

 

Chords

G Em Cadd9 D C

--3-----0--------3-------2------0---

--3-----0--------3-------3------1---

--0-----0--------0-------2------0---

--0-----2--------2-------0------2---

--2-----2--------3-------x------3---

--3-----0--------x-------x------x---

 

 

Intro

|-----------------------------|

|-----------------------------|

|-------0---------------0-----|

|---------0---------------0---|

|-----------------------------|

|---3-3-------------3-3-------|

 

Verse 1

 

- Play 4 times (twice without vocals, twice with vocals)

G G Cadd9 D

|-----------------------------------------------------------|

|-------3-------------3-------------3-------------3---------|

|-----0---0---0-----0---0---0-----0---0---------2---2---2---|

|-----------0-------------0-------------2-----0-------0-----|

|-------------------------------3---------3-----------------|

|---3-------------3-----------------------------------------|

 

1. -

2. -

3. Another turning point a fork stuck in the road

4. Time grabs you by the wrist directs you where to go

 

- Play twice

Em D C G

|-----------------------------------------------------------|

|-------0-------------3-------------1-------------3---------|

|-----0---0---0-----2---2---2-----0---0---0-----0---0---0---|

|-----------2-----0-------0-------------2-------------0-----|

|---2---------------------------3---------------------------|

|---------------------------------------------3-------------|

 

1. So make the best of this test and don't ask why

2. It's not a question but a lesson learned in time

 

- Play once

Em G Em G

|-----------------------------------------------------------|

|-------0-------------3-------------0-------------3---------|

|-----0---0---0-----0---0---0-----0---0---0-----0---0---0---|

|-----------2-------------0-------------2-------------0-----|

|---2---------------------------2---------------------------|

|-----------------3---------------------------3-------------|

 

1. It's something unpredictable but in the end it's right, .....

Em D

|---------------------------------|

|-------0-------------3-----------|

|-----0---0---0-----2---2---------|

|-----------2-----0-------0-------|

|---2-----------------------(0)---|

|---------------------------------|

 

... I hope you had the time of your ..

 

Strumming part.

 

- Simply strum it with the rythem. The best way to play is to strum the

top three strings a few times then strum the lower three strings

repeatedly while sometimes hitting it hard.

 

G G Cadd9 D

..Life

 

G G Cadd9 D

 

G G Cadd9 D

So take the fotographs and still frames in your mind

G G Cadd9 D

Hang it on a shelf of good health amd good time

Em D C G

Tattoos of memories and dead skin on trial

Em D C G

For wat it's worth it was worth all the while

Em G Em G

It's something unpredictable, but in the end it's right

Em D G

I hope you had the time of your life

 

 

Now a bridge starts, with the violin

 

G G Cadd9 D (4 times)

Em D C G (2 times)

 

Em G Em G

It's something unpredictable, but in the end it's right

Em D G

I hope you had the time of your life

 

G Cadd9 D

G G Cadd9 D

 

 

The ending part ...

 

Em G Em G

|-----------------------------------------------------------|

|-------0-------------3-------------0-------------3---------|

|-----0---0---0-----0---0---0-----0---0---0-----0---0---0---|

|-----------2-------------0-------------2-------------0-----|

|---2---------------------------2---------------------------|

|-----------------3---------------------------3-------------|

 

1. It's something unpredictable, but in the end its right, ....

 

Em D

|---------------------------------|

|-------0-------------3-----------|

|-----0---0---0-----2---2---------|

|-----------2-----0-------0-------|

|---2-----------------------(0)---|

|---------------------------------|

 

2. I Hope you had a time of your ....

 

G G Cadd9 D

|-----------------------------------------------------------|

|-------3-------------3-------------3-------------3---------|

|-----0---0---0-----0---0---0-----0---0---------2---2---2---|

|-----------0-------------0-------------2-----0-------0-----|

|-------------------------------3---------3-----------------|

|---3-------------3-----------------------------------------|

 

... life. ...

 

Play this slowly ...

 

G Cadd9 D

|-----------------------------------------------------------3---|

|-------3-----3-------3-------------3-------------3---------3---|

|-----0---0---------0---0---0-----0---0---------2---2-2-0---0---|

|-----------0-------------0-------------2-----0-------------0---|

|-------------------------------3---------3-----------------2---|

|---3-------------3-----------------------------------------3---|

 

 

Return to my Green Day tabs page

The Tablature is Copyright its respective owners.

Sign Up For My Newsletter
Subscribe | Unsubscribe

Site Map | Disclaimer | Privacy Policy | Media Kit | Submissions/Corrections

Website © 2000-2014 mattsmusicpage.com. All rights reserved.

Legal & DMCA: Matt's Music Page has been providing lyrics and tabs in a legal way, paying royalties each year to a few organizations. Then, all lyrics and tabs were removed from the site. Now, there's a new owner to the site, which purchased it August 26, 2014, and he is in negotiation to obtain licensing from BMI at the moment. If you have a specific DMCA request -- please do not hesitate to contact me via the contact button on top. I will do my very best to keep this site fully legal.

Get our toolbar!

 

Starbucks You Are Here Coffee Mug/Cup KENTUCKY - Horses, Banjo, Blue, White
$19.99
Starbucks You Are Here Coffee Mug/Cup KENTUCKY - Horses, Banjo, Blue, White picture


KNOWLES ROCKWELL HERITAGE "THE BANJO PLAYER" FIRST EDITION 1989 PLATE COA
$5.99
KNOWLES ROCKWELL HERITAGE


Vintage Postcard 1981 Disney World Banjo Kings Main Street USA 1981 Postmark
$4.99
 Vintage Postcard 1981 Disney World Banjo Kings Main Street USA 1981 Postmark picture


Banjo Barometer With Thermometer Hygrometer 490mm
$84.76
Banjo Barometer With Thermometer Hygrometer 490mm picture


ANTIQUE JAPANESE NIPPON FIGURINE SET OF 3 WOMEN GEISHA PLAYING DRUM BANJO FAN
$24.0
ANTIQUE JAPANESE NIPPON FIGURINE SET OF 3 WOMEN GEISHA PLAYING DRUM BANJO FAN picture