Your One-Stop Source For
Music Lyrics
Bass and Guitar Tabs
and More...
>Music Lyrics Bass and Guitar Tabs

 

The Tabs Are Below

Learn To Read Tab
Chords Handbook
Corrections & Additions
Get Official Tab
Green Day tabs @ 911Tabs

 

She - BASS

by Green Day

tabbed by ikswejahan

Standard Tuning

 

INTRO

g-----------

d-4-4-4-4-4-

a-----------

E-----------

 

VERSE

g---------------------------------------|

d-4-4-4-4-4-------------------4-4-4-4-4-|

a-----------4-4-4-4-4-2-2-2-2-----------|

E---------------------------------------|

 

PRE-CHORUS

g-------------------------|

d-------------------------|

a-4-4-4-4-4-4-2-2-2-------|

E-------------------2-2-2-|

 

CHORUS

g-------------------------------------------------|

d-------------------------------------------------|

a-2-2-2-------2-2-2-------2-2-2-------4-4-4-4-4-4-|

E-------2-2-2-------2-2-2-------2-2-2-------------|

 

BRIDGE

g--------------------------------------|

d--------------------------------------|

a---------4-4-4-4-2-2-2-2------2-2-----|

E-2-2-2-2------------------2-2-----2-2-|

 

***ORDER OF PLAY***

INTRO

VERSE

PRE-CHORUS

CHORUS

VERSE

PRE-CHORUS

CHORUS

BRIDGE

PRE-CHORUS

CHORUS

 

That's it. The # of times you play each note isnt right but its enough to give you the picture. Send me any requests or email me if you wanna sign up for my tab mailing list.

 

Return to my Green Day tabs page

The Tablature is Copyright its respective owners.

Sign Up For My Newsletter
Subscribe | Unsubscribe

Site Map | Disclaimer | Privacy Policy | Media Kit | Submissions/Corrections

Website © 2000-2014 mattsmusicpage.com. All rights reserved.

Legal & DMCA: Matt's Music Page has been providing lyrics and tabs in a legal way, paying royalties each year to a few organizations. Then, all lyrics and tabs were removed from the site. Now, there's a new owner to the site, which purchased it August 26, 2014, and he is in negotiation to obtain licensing from BMI at the moment. If you have a specific DMCA request -- please do not hesitate to contact me via the contact button on top. I will do my very best to keep this site fully legal.

Get our toolbar!

 

LDS GOLD VINYL records Book of Mormon 35 discs 2 Vol Church Jesus Christ 33 1/3
$14.99
LDS GOLD VINYL records Book of Mormon 35 discs 2 Vol Church Jesus Christ 33 1/3 picture


Star Wars Original Soundtrack 1977 Vinyl Record LP. Prestine condition.
$75.0
Star Wars Original Soundtrack 1977 Vinyl Record LP. Prestine condition.  picture


LDS vinyl records Doctrine & Covenants Pearl of Great Price weird 16 2/3 speed
$9.99
LDS vinyl records Doctrine & Covenants Pearl of Great Price weird 16 2/3 speed picture


Red Vinyl DISCOVERY Record Les Baxter Trio Crioca & Balla 7" Hollywood CA
$0.99
 Red Vinyl DISCOVERY Record Les Baxter Trio Crioca & Balla 7


THE TRIUMPH OF MAN☆1964 NEW YORK WORLD'S FAIR RED VINYL RECORD☆IN PIC SLEEVE
$8.5
THE TRIUMPH OF MAN☆1964 NEW YORK WORLD'S FAIR RED VINYL RECORD☆IN PIC SLEEVE picture