Your One-Stop Source For
Music Lyrics
Bass and Guitar Tabs
and More...
Music Lyrics Bass and Guitar Tabs

 

The Green Day Guitar Tabs Are Below

Learn To Read Tab
Chords Handbook
Corrections & Additions
Get Official Tab
Green Day tabs @ 911Tabs

Green Day - See The Light

 

I. Intro

Gtr 2

e|--2--x--|

B|--3--2--|

G|--2--2--|

D|--0--2--|

A|--0--0--|

E|--x--x--|

 

II. Verse

Gtr 1

e|----------------------|

B|----------------------| x4

G|--6-------------------|

D|--6--6-6-6-6-6-6-6-6--|

A|--4--6-6-6-6-6-6-6-6--|

E|-----4-4-4-4-4-4-4-4--|

 

Gtr 2

e|---------------------------------------------------------------------------|

B|---------------------------------------------------------------------------|

G|--6-------------------6--8-8-8-8-8-8-8-8--6-------------------6------------|

D|-----6-6-6-6-6-6-6-6-------------------------6-6-6-6-6-6-6-6----6-6-6-6-\--|

A|--4-------------------4--6-6-6-6-6-6-6-6--4-------------------4---------\--|

E|-----4-4-4-4-4-4-4-4-------------------------4-4-4-4-4-4-4-4----4-4-4-4-\--|

 

III. Chorus

Gtr 1

e|-------------------------------------------------------|

B|-------------------------------------------------------| x3

G|--6-6-6-6-6-6-6-6-6-6-6-6---------------------6--------|

D|--6-6-6-6-6-6-4-4-4-6-6-6-6-6-6-6-6-6-6-6-6-4-6-6-6-6--|

A|--4-4-4-4-4-4-------4-4-4-6-6-6-6-6-6-6-6-6-6-4-6-6-6--|

E|--------------------------4-4-4-4-4-4-4-4-4-4---4-4-4--|

 

e|-------------------------------------------------------|

B|-------------------------------------------------------|

G|--6-6-6-6-6-6-6-6-6-6-6-6-8-8-8-8-8-8-8-8-8-8---8-8-8--|

D|--6-6-6-6-6-6-4-4-4-6-6-6-8-8-8-8-8-8-8-8-8-8-6-8-8-8--|

A|--4-4-4-4-4-4-------4-4-4-6-6-6-6-6-6-6-6-6-6-6-6-6-6--|

E|----------------------------------------------4--------|

 

Gtr 2

e|----------------------------------------------------------------------------------|

B|--------14-------14--------14-------14-------13-------13----13----13----16----13--| x3

G|--13-13----13-13-----13-13----13-13----13-13----13-13----13----13----13----13-----|

D|----------------------------------------------------------------------------------|

A|----------------------------------------------------------------------------------|

E|----------------------------------------------------------------------------------|

 

e|----------------------------------------------------------------------------------|

B|--------14-------14--------14-------14-------16-------16----16----16----16----16--|

G|--13-13----13-13-----13-13----13-13----13-13----13-13----13----13----13----13-----|

D|----------------------------------------------------------------------------------|

A|----------------------------------------------------------------------------------|

E|----------------------------------------------------------------------------------|

 

IV. Verse

Gtr 1

e|----------------------|

B|----------------------| x8

G|--6-------------------|

D|--6--6-6-6-6-6-6-6-6--|

A|--4--6-6-6-6-6-6-6-6--|

E|-----4-4-4-4-4-4-4-4--|

 

Gtr 2

e|---------------------------------------------------------------------------------|

B|---------------------------------------------------------------------------------|

G|--6-------------------6--8-8-8-8-8-8-8-8--6-------------------6------------------|

D|-----6-6-6-6-6-6-6-6-------------------------6-6-6-6-6-6-6-6----6-6-6-6-6-6-6-6--|

A|--4-------------------4--6-6-6-6-6-6-6-6--4-------------------4------------------|

E|-----4-4-4-4-4-4-4-4-------------------------4-4-4-4-4-4-4-4----4-4-4-4-4-4-4-4--|

 

e|---------------------------------------------------------------------------|

B|---------------------------------------------------------------------------|

G|--6-------------------6--8-8-8-8-8-8-8-8--6-------------------6------------|

D|-----6-6-6-6-6-6-6-6-------------------------6-6-6-6-6-6-6-6----6-6-6-6-\--|

A|--4-------------------4--6-6-6-6-6-6-6-6--4-------------------4---------\--|

E|-----4-4-4-4-4-4-4-4-------------------------4-4-4-4-4-4-4-4----4-4-4-4-\--|

 

V. Chorus

Gtr 1

e|-------------------------------------------------------|

B|-------------------------------------------------------| x3

G|--6-6-6-6-6-6-6-6-6-6-6-6---------------------6--------|

D|--6-6-6-6-6-6-4-4-4-6-6-6-6-6-6-6-6-6-6-6-6-6-4-6-6-6--|

A|--4-4-4-4-4-4-------4-4-4-6-6-6-6-6-6-6-6-6-6-4-6-6-6--|

E|--------------------------4-4-4-4-4-4-4-4-4-4---4-4-4--|

 

e|------------------------------|

B|------------------------------|

G|--6-6-6-6-6-6-6-6-6-6-6-6-8\--|

D|--6-6-6-6-6-6-4-4-4-6-6-6-8\--|

A|--4-4-4-4-4-4-------4-4-4-6\--|

E|------------------------------|

 

Gtr 2

e|----------------------------------------------------------------------------------|

B|--------14-------14--------14-------14-------13-------13----13----13----16----13--| x3

G|--13-13----13-13-----13-13----13-13----13-13----13-13----13----13----13----13-----|

D|----------------------------------------------------------------------------------|

A|----------------------------------------------------------------------------------|

E|----------------------------------------------------------------------------------|

 

e|----------------------------------------|

B|--------14-------14--------14-------14--|

G|--13-13----13-13-----13-13----13-13-----|

D|----------------------------------------|

A|----------------------------------------|

E|----------------------------------------|

 

VI. Solo

Gtr 1 Repeats Chorus

 

Gtr 2

e|----------------------------------------------------------------------12----12--|

B|-------------------------------------------13-------13----13----13--------------|

G|--10-8--------8-10-11-11-11-10-10-10-13-13----13-13----13----13----13----13-----|

D|-------11--11-------------------------------------------------------------------|

A|--------------------------------------------------------------------------------|

E|--------------------------------------------------------------------------------|

 

e|--13-11--------11-13-14-14-14-13-13-13----------------------------------16--------|

B|--------14--14-------------------------16-16-16----16-------16----16----------16--|

G|------------------------------------------------13----13-13----13----13----13-----|

D|----------------------------------------------------------------------------------|

A|----------------------------------------------------------------------------------|

E|----------------------------------------------------------------------------------|

 

e|----------------------------------------------------------------------12----12--|

B|-------------------------------------------13-------13----13----13--------------|

G|--10-8--------8-10-11-11-11-10-10-10-13-13----13-13----13----13----13----13-----|

D|-------11--11-------------------------------------------------------------------|

A|--------------------------------------------------------------------------------|

E|--------------------------------------------------------------------------------|

 

e|--13-11--------11-13-14-14-14-13-13-13--------------------------------------------|

B|--------14--14-------------------------16-16-16----16-------16----16----16----16--|

G|------------------------------------------------13----13-13----13----13----13-----|

D|----------------------------------------------------------------------------------|

A|----------------------------------------------------------------------------------|

E|----------------------------------------------------------------------------------|

 

VII. Verse

Gtr 1

e|----------------------|

B|----------------------| x10

G|--6-------------------|

D|--6--6-6-6-6-6-6-6-6--|

A|--4--6-6-6-6-6-6-6-6--|

E|-----4-4-4-4-4-4-4-4--|

 

Gtr 2

e|----------------------------------------------------------------------------------------------|

B|-----16----16---------16-14--13~--------------------------------------------------------------|

G|--13----13----13~--13-------------6-------------------6--8-8-8-8-8-8-8-8--6-------------------|

D|-------------------------------------6-6-6-6-6-6-6-6-------------------------6-6-6-6-6-6-6-6--|

A|----------------------------------4-------------------4--6-6-6-6-6-6-6-6--4-------------------|

E|-------------------------------------4-4-4-4-4-4-4-4-------------------------4-4-4-4-4-4-4-4--|

 

e|-----------------------------------------------------------------------------------------------|

B|-----------------------------------------------------------------------------------------------|

G|--6-------------------6-------------------6--8-8-8-8-8-8-8-8--6-------------------6------------|

D|-----6-6-6-6-6-6-6-6-----6-6-6-6-6-6-6-6-------------------------6-6-6-6-6-6-6-6----6-6-6-6-\--|

A|--4-------------------4-------------------4--6-6-6-6-6-6-6-6--4-------------------4---------\--|

E|-----4-4-4-4-4-4-4-4-----4-4-4-4-4-4-4-4-------------------------4-4-4-4-4-4-4-4----4-4-4-4-\--|

 

VIII. Repeat Chorus

 

IX. Outro

e|--------|

B|--------| x4

G|--6-----|

D|--6--6--|

A|--4--6--|

E|-----4--|

(Then)

Repeat Intro

Return to my Green Day Guitar Tabs page

The Tablature is Copyright its respective owners.

Sign Up For My Newsletter
Subscribe | Unsubscribe

Site Map | Disclaimer | Privacy Policy | Media Kit | Submissions/Corrections

Website © 2000-2014 mattsmusicpage.com. All rights reserved.

Get our toolbar!