Your One-Stop Source For
Music Lyrics
Bass and Guitar Tabs
and More...
Music Lyrics Bass and Guitar Tabs

 

The Tabs Are Below

Learn To Read Tab
Chords Handbook
Corrections & Additions
Get Official Tab
Green Day tabs @ 911Tabs

 

Author/Artist: Green Day

Title: Minority

Album: Warning

Transcribed by: Huskers182

Email: FTo2345821@aol.com

 

-|---------------------------0------------------------------------------------

-|-------1---------3-----1-----1-------1---------1-0-------3------------------

-|---0-----0---------0-2---2-----0-----0-0-------0-0---0-----0-2-0------------

-|-----2-------0-------3---3-----0h2-------0h2-----------------3-2-0-2--------

-|-3-------------2-------------------3---------3---------2-----------3--------

-|-----------3---------------------------------------3------------------------

Intro,acoustic, let ring

 

-|----------------------------------------------------------------------------

-|----------------------------------------------------------------------------

-|--5-5-5-5-------------------------------------------------------------------

-|--5-5-5-5---3-3-3-3---5-5-5-5---3-3-3-3-------------------------------------

-|--3-3-3-3---3-3-3-3---5-5-5-5---3-3-3-3-------------------------------------

-|----------0-1-1-1-1-0-3-3-3-3-0-1-1-1-1-0-----------------------------------

Chorus

 

-|-0-0-0-3-3-0-1-1-0-0-0-0-0-x------------------------------------------------

-|-1-1-0-3-3-0-1-1-1-0-1-1-1-x------------------------------------------------

-|-0-0-0-0-0-0-2-2-2-0-0-0-0-x------------------------------------------------

-|-2-2-0-0-0-0-3-3-3-0-2-2-2-x------------------------------------------------

-|-3-3---2-2-----------3-3-3--------------------------------------------------

-|-------3-3------------------------------------------------------------------

Verses, played on acoustic,repeat 2x, then go back to chorus

 

-|----------------------------------------------------------------------------

-|---------------------9---10-10-10-10----------------------------------------

-|---------------------9---10-10-10-10------------------------------9---------

-|3/7--7-7-7-7-7-7-7---9---10-10-10-10---10-10-10-10--7-7-7-7-7-7-7-9---------

-|3/7--7-7-7-7-7-7-7---7-8-8--8--8--8----10-10-10-10--7-7-7-7-7-7-7-7---------

-|1/5--5-5-5-5-5-5-5-0-----------------0-8--8--8--8---5-5-5-5-5-5-5-----------

bridge part after chorus, repeat 2x

 

-|----------------------------------------------------------------------------

-|----------------------------------------------------------------------------

-|-------------------------------------------------------------------------4--

-|-3-3-3-3---5-5-5-5---7-7-7-7-7-7-7---3---5-5-x-x-x-5-5-x-x-x-5-5-5-5-5-5-4--

-|-3-3-3-3---5-5-5-5---7-7-7-7-7-7-7---3---5-5-x-x-x-5-5-x-x-x-5-5-5-5-5-5-2--

-|-1-1-1-1-3-3-3-3-3-0-5-5-5-5-5-5-5-0-1-0-3-3-x-x-x-3-3-x-x-x-3-3-3-3-3-3----

Natural Harm.(*) * * * * * *

 

-|----------------------------------------------------------------------------

-|----------------------------------------------------------------------------

-|-------0--------------------------------------------------------------------

-|-2-0-0-2--------------------------------------------------------------------

-|-3-2-0-3--------------------------------------------------------------------

-|----------------------------------------------------------------------------

play intro to end song end with this, let ring

Return to my Green Day tabs page

The Tablature is Copyright its respective owners.

Sign Up For My Newsletter
Subscribe | Unsubscribe

Site Map | Disclaimer | Privacy Policy | Media Kit | Submissions/Corrections

Website © 2000-2014 mattsmusicpage.com. All rights reserved.

Legal & DMCA: Matt's Music Page has been providing lyrics and tabs in a legal way, paying royalties each year to a few organizations. Then, all lyrics and tabs were removed from the site. Now, there's a new owner to the site, which purchased it August 26, 2014, and he is in negotiation to obtain licensing from BMI at the moment. If you have a specific DMCA request -- please do not hesitate to contact me via the contact button on top. I will do my very best to keep this site fully legal.

Get our toolbar!