Your One-Stop Source For
Music Lyrics
Bass and Guitar Tabs
and More...
Music Lyrics Bass and Guitar Tabs

 

The Tabs Are Below

Learn To Read Tab
Chords Handbook
Corrections & Additions
Get Official Tab
Green Day tabs @ 911Tabs

 

Longview

Green Day

 

 

\ = slide down

r = quickly after striking, release

 

at the end of the verse at the drum roll, the guitar kicks in playing C#5.

then the chorus is A#5 G#5 and some sort of weird variation of D#5. what

i have here for D#5 is only a guess.

 

C#5 A#5 G#5 D#(5)

-----|----------------------------------------6---6--6

-----|----------------------------------------8---8--8

--6--|----------------------------------------8---8--8

--6--|--8r----8r----8r-----8r----6r----6r-----8---8--8

--4--|--8r----8r----8r-----8r----6r----6r-----6---6--6

-----|--6--6--6--6--6--6--6--6--4--4--4--4---0---0--0

 

the chorus ends like this:

 

A#5 G#5

D#5

---------------------------------------------------------

---------------------------------------------------------

-----------------------------------------------------8\--

--8r----8r----8r-----8r----6r----6r-----6r----6r-----8\--

--8r----8r----8r-----8r----6r----6r-----6r----6r-----6\--

--6--6--6--6--6--6--6--6--4--4--4--4--4--4--4--4-------

 

the bridge is D#5 C#5 and then it goes back into the chorus riff for the

interlude.

 

the outro is this:

 

------------------------------11--

--8--9--6-----------8--9--11------

-----------10---------------------

----------------------------------

----------------------------------

----------------------------------

 

--------------------------------------------------------------------------------

Longview

Green Day

 

\ = slide down

r = release

 

the guitar here was copied from Keith something...(don't wanna start a war)...

 

-|-44444444---|----------------------------------------6---6--6-|-

-|-66666666---|----------------------------------------8---8--8-|-

-|-66666666---|----------------------------------------8---8--8-|-

-|-66666666---|--8r----8r----8r-----8r----6r----6r-----8---8--8-|-

-|-44444444---|--8r----8r----8r-----8r----6r----6r-----6---6--6-|-

-|-00000000---|--6--6--6--6--6--6--6--6--4--4--4--4----0---0--0-|-

 

-|-------------------------------------------------------|-

-|-------------------------------------------------------|-

-|----------------------------------------------------8\-|-

-|-8r----8r----8r-----8r----6r----6r-----6r----6r-----8\-|-

-|-8r----8r----8r-----8r----6r----6r-----6r----6r-----6\-|-

-|-6--6--6--6--6--6--6--6--4--4--4--4--4--4--4--4--------|-

 

 

This the end (my way: probably wrong, please give me corrections)

 

-|-------------------------------|-

-|-8h9---11----------8h9--9---6--|-

-|-8------8----------8----8---6--|-

-|-------------------------------|-

-|-------------------------------|-

-|-------------------------------|-

 

By the way the bass goes like this:

 

Riff A - during the actual verse

-|--------------------------------8-6-5-6-|-

-|----8-6-5-----6-5----5----8-6-5---------|-

-|-6----------4------6---6----------------|-

-|----------------------------------------|-

 

Riff B - after chorus

 

-|---8-----8-----6-5-----------8-----8-----6-5---------|-

-|-----6h8-----------8-6(h8)-----6h8---8---------8-6h8-|-

-|-6-------------------------6-------------------------|-

-|-----------------------------------------------------|-

 

 

Return to my Green Day tabs page

The Tablature is Copyright its respective owners.

Sign Up For My Newsletter
Subscribe | Unsubscribe

Site Map | Disclaimer | Privacy Policy | Media Kit | Submissions/Corrections

Website © 2000-2014 mattsmusicpage.com. All rights reserved.

Legal & DMCA: Matt's Music Page has been providing lyrics and tabs in a legal way, paying royalties each year to a few organizations. Then, all lyrics and tabs were removed from the site. Now, there's a new owner to the site, which purchased it August 26, 2014, and he is in negotiation to obtain licensing from BMI at the moment. If you have a specific DMCA request -- please do not hesitate to contact me via the contact button on top. I will do my very best to keep this site fully legal.

Get our toolbar!

 

VINTAGE SORRENTO MUSIC JEWELRY BOX
$45.0
VINTAGE SORRENTO MUSIC JEWELRY BOX picture


VINTAGE LACQUERED MUSIC BOX JAPAN
$25.99
VINTAGE LACQUERED MUSIC BOX JAPAN picture


Vintage Kehlsteinhaus Bavaria Germany Colorscope Cow Bell View Master Music Box
$8.99
Vintage Kehlsteinhaus Bavaria Germany Colorscope Cow Bell View Master Music Box picture


VINTAGE SCHMIDT Signed Collectible Musical Turning Clown
$9.99
VINTAGE  SCHMIDT Signed Collectible Musical Turning Clown picture


Vintage - Linen - Postcard - Stage - Radio City Music Hall - New York City
$3.75
Vintage - Linen - Postcard - Stage - Radio City Music Hall - New York City   picture