Your One-Stop Source For
Music Lyrics
Bass and Guitar Tabs
and More...
Music Lyrics Bass and Guitar Tabs

 

The Tabs Are Below

Learn To Read Tab
Chords Handbook
Corrections & Additions
Get Official Tab
Green Day tabs @ 911Tabs

Green Day Letterbomb

From the Album 'American Idiot'

Track 10

Tabbed by Liam

Email: guitar_rocker_47@hotmail.com

 

Intro

e|-----------------|-----------------|-----------------|-----------------|

B|-----------------|-----------------|-----------------|-----------------|

G|-9-9-9-9-9-9-9-9-|-9-9-9-9-9-9-9-9-|-9-9-9-9-9-9-9-9-|-9-9-9-9-9-9-9-9-|

D|-x-x-x-x-x-x-x-x-|-x-x-x-x-x-x-x-x-|-x-x-x-x-x-x-x-x-|-x-x-x-x-x-x-x-x-|

A|-7-7-7-7-7-7-7-7-|-7-7-7-7-7-7-7-7-|-7-7-7-7-7-7-7-7-|-7-7-7-7-7-7-7-7-|

E|-----------------|-----------------|-----------------|-----------------|

 

e|-----------------|-----------------|-----------------|-----------------|

B|-----------------|-----------------|-----------------|-----------------|

G|-9-9-9-9-9-9-9-9-|-9-9-9-9-9-9-9-9-|-8-8-8-8-8-8-8-8-|-8-8-8-8-8-8-8-8-|

D|-x-x-x-x-x-x-x-x-|-x-x-x-x-x-x-x-x-|-x-x-x-x-x-x-x-x-|-x-x-x-x-x-x-x-x-|

A|-7-7-7-7-7-7-7-7-|-7-7-7-7-7-7-7-7-|-6-6-6-6-6-6-6-6-|-6-6-6-6-6-6-6-6-|

E|-----------------|-----------------|-----------------|-----------------|

 

e|-----------------|-----------------|-----------------|-----------------|

B|-----------------|-----------------|-----------------|-----------------|

G|-9-9-9-9-9-9-9-9-|-9-9-9-9-9-9-9-9-|-9-9-9-9-9-9-9-9-|-9-9-9-9-9-9-9-9-|

D|-x-x-x-x-x-x-x-x-|-x-x-x-x-x-x-x-x-|-x-x-x-x-x-x-x-x-|-x-x-x-x-x-x-x-x-|

A|-7-7-7-7-7-7-7-7-|-7-7-7-7-7-7-7-7-|-7-7-7-7-7-7-7-7-|-7-7-7-7-7-7-7-7-|

E|-----------------|-----------------|-----------------|-----------------|

 

Intro Part 2

e|-----------------------------------------------------------------------|

B|-----------------------------------------------------------------------|

G|----------------------------------------------6-6-6-6-6-6-6-6-6-6------|

D|-9\-2-2-2-2-2-2-2-2-2-2--6-6-6-6-6-6-6-6-6-6--6-6-6-6-6-6-6-6-6-6--7-7-|

A|-9\-2-2-2-2-2-2-2-2-2-2--6-6-6-6-6-6-6-6-6-6--4-4-4-4-4-4-4-4-4-4--7-7-|

E|-7\-0-0-0-0-0-0-0-0-0-0--4-4-4-4-4-4-4-4-4-4-----------------------5-5-|

 

e|-----------------------------------------------------------------------|

B|-----------------------------------------------------------------------|

G|-----------------------------------------------------------------------|

D|-7-7-7-7-7-7-7---------------------------------------------------------|

A|-7-7-7-7-7-7-7---------------------------------------------------------|

E|-5-5-5-5-5-5-5---------------------------------------------------------|

 

Verse

e|-----------------------------------------------------------------------|

B|-----------------------------------------------------------------------|

G|------------------------------------------------------------2-2--------|

D|-2-2-2-2-2-2-2-2-2--7-7-7-7-7-7-7-7--4-4-4-4--7-7-7-7--2-2--2-2--2-2-2-|

A|-2-2-2-2-2-2-2-2-2--7-7-7-7-7-7-7-7--4-4-4-4--7-7-7-7--2-2--2-2--2-2-2-|

E|-0-0-0-0-0-0-0-0-0--5-5-5-5-5-5-5-5--2-2-2-2--5-5-5-5--0-0--0-0--0-0-0-|

PM ***************

 

e|-----------------------------------------------------------------------|

B|-----------------------------------------------------------------------|

G|---------------------6-6-6-6-6-----------6-6-6-6-6---------------------|

D|-2-2-2-2-2--6-6-6-6--6-6-6-6-6--6-6-6-6--6-6-6-6-6--7-7-7-7--4-4-4-4---|

A|-2-2-2-2-2--6-6-6-6--4-4-4-4-4--6-6-6-6--4-4-4-4-4--7-7-7-7--4-4-4-4---|

E|-0-0-0-0-0--4-4-4-4-------------4-4-4-4-------------5-5-5-5--2-2-2-2---|

 

e|----------------|

B|----------------|

G|----------7-----|

D|--9--7-7--7--9--|

A|--9--7-7--5--9--|

E|--7--5-5-----7--|

 

Verse 2

e|-----------------------------------------------------------------------|

B|-----------------------------------------------------------------------|

G|------------------------------------------------------------2-2--------|

D|-2-2-2-2-2-2-2-2-2--7-7-7-7-7-7-7-7--4-4-4-4--7-7-7-7--2-2--2-2--2-2-2-|

A|-2-2-2-2-2-2-2-2-2--7-7-7-7-7-7-7-7--4-4-4-4--7-7-7-7--2-2--2-2--2-2-2-|

E|-0-0-0-0-0-0-0-0-0--5-5-5-5-5-5-5-5--2-2-2-2--5-5-5-5--0-0--0-0--0-0-0-|

PM ***************

 

e|-----------------------------------------------------------------------|

B|-----------------------------------------------------------------------|

G|---------------------6-6-6-6-6-----------6-6-6-6-6---------------------|

D|-2-2-2-2-2--6-6-6-6--6-6-6-6-6--6-6-6-6--6-6-6-6-6--7-7-7-7--4-4-4-4---|

A|-2-2-2-2-2--6-6-6-6--4-4-4-4-4--6-6-6-6--4-4-4-4-4--7-7-7-7--4-4-4-4---|

E|-0-0-0-0-0--4-4-4-4-------------4-4-4-4-------------5-5-5-5--2-2-2-2---|

 

e|------------------|------------------|--------------------|

B|------------------|------------------|--------------------|

G|---------7--------|---------7--------|---------7----------|

D|-9--7-7--7--9-9-9-|-9--7-7--7--9-9-9-|-9--7-7--7--9-9-9-9-|

A|-9--7-7--5--9-9-9-|-9--7-7--5--9-9-9-|-9--7-7--5--9-9-9-9-|

E|-7--5-5-----7-7-7-|-7--5-5-----7-7-7-|-7--5-5-----7-7-7-7-|

 

 

Pre chorus

e|---------------------------|---------------------------|-------------------|

B|---------------------------|-------------------------4-|-------------------|

G|-------------------------7-|-------------------------4-|-4-4-4-4-4-4-4-4-4-|

D|-7-7-7-7-7-7-7-7-7--6-6--7-|-7-7-7-7-7-7-7-7-7--6-6--2-|-4-4-4-4-4-4-4-4-4-|

A|-7-7-7-7-7-7-7-7-7--6-6--5-|-7-7-7-7-7-7-7-7-7--6-6----|-2-2-2-2-2-2-2-2-2-|

E|-5-5-5-5-5-5-5-5-5--4-4----|-5-5-5-5-5-5-5-5-5--4-4----|-------------------|

 

e|--------|---------------------------|---------------|

B|------4-|-------------------------4-|---------------|

G|------4-|-4-4-4-4-4-4-4-4-4-------4-|---------------|

D|-7-7--2-|-4-4-4-4-4-4-4-4-4--7-7--2-|-4-4-4-4-4-4-4-|

A|-7-7----|-2-2-2-2-2-2-2-2-2--7-7----|-4-4-4-4-4-4-4-|

E|-5-5----|--------------------5-5----|-2-2-2-2-2-2-2-|

 

 

 

(It's not over till you're underground...)

E5 B5 A5 E5 B5 A5

e|-----------------------------|

B|-----------------------------|

G|-9---------------9-----------|

D|-9---9---7-------9---9---7---|

A|-7---9---7-------7---9---7---|

E|-----7---5-----------7---5---|

 

E5 B5 A5 F5 E5 B5 A5

e|-----------------------------|

B|-----------------------------|

G|-9---------------9-----------|

D|-9---9---7--3----9---9---7---|

A|-7---9---7--3----7---9---7---|

E|-----7---5--1--------7---5---|

 

(Well there is nothing left to analyze...)

F#5 A

e|-------------|

B|-------------|

G|-------------|

D|--4------7---|

A|--4------7---|

E|--2------5---|

 

 

Guitar 1 (Where will all the...)

e|------------------------------------------------------|

B|------------------------------------------------------|

G|-9-9-9-9-9-9-9-9--9-9-9-9-9-9-9-9--9-9-9-9-9-9-9-9----|

D|------------------------------------------------------|

A|-7-7-7-7-7-7-7-7--7-7-7-7-7-7-7-7--7-7-7-7-7-7-7-7----|

E|------------------------------------------------------|

 

Guitar 2

e|------------------------------------------------------|

B|-----------------------------------9-----9-----9------|

G|--------------------------------------9-----9----9----|

D|------------------------------------------------------|

A|------------------------------------------------------|

E|------------------------------------------------------|

 

Guitar 1

e|------------------------------------------------------|

B|------------------------------------------------------|

G|-8-8-8-8-8-8-8-8--9-9-8-4-4-6-6-8--9-9-8-9-9----------|

D|------------------------------------------------------|

A|-6-6-6-6-6-6-6-6--7-7-6-2-2-4-4-6--7-7-6-7-7----------|

E|---------------------------------------------/////////|

^pick-slide

Guitar 2

e|------------------------------------------------------|

B|-7-----7-----7----9-----9-----9----10----10----10-----|

G|----8-----8----8-----9-----9----9-----9-----9----9----|

D|------------------------------------------------------|

A|------------------------------------------------------|

E|------------------------------------------------------|

 

 

 

E5 G#5 C#5 A

e|------------------------------------------------------|

B|------------------------------------------------------|

G|----------------------------------6-------------------|

D|--2---------------6---------------6---------7---------|

A|--2---------------6---------------4---------7---------|

E|--0---------------4-------------------------5---------|

 

 

 

Guitar 1 (Well don't look back...)

E5 G#5

e|------------------------------------------------------|

B|------------------------------------------------------|

G|----------------------------------9-8-4-8--9-8-4-4----|

D|--2---------------6-----------------------------------|

A|--2---------------6---------------7-6-2-6--7-6-2-2----|

E|--0---------------4-----------------------------------|

 

Guitar 2

e|------------------------------------------------------|

B|------------------------------------------------------|

G|-9---9---9---9-9--8-8-8h9p8-8-6-4---------------------|

D|---9---9---9--9---------------------------------------|

A|------------------------------------------------------|

E|------------------------------------------------------|

 

 

 

(You're not the Jesus of Suburbia...)

B5 A5 B5

e|-------------------------------------------------|

B|-------------------------------------------------|

G|-------------------------------------------------|

D|--9-7/9-99--7/9-99--6/7-77--6/9-99--7/9-9-7/9----|

A|--9-7/9-99--7/9-99--6/7-77--6/9-99--7/9-9-7/9----|

E|--7-5/7-77--5/7-77--4/5-55--4/7-77--5/7-7-5/7----|

 

 

(It's not over till you're underground...)

E5 B5 A5 E5 B5 A5

e|-----------------------------|

B|-----------------------------|

G|-9---------------9-----------|

D|-9---9---7-------9---9---7---|

A|-7---9---7-------7---9---7---|

E|-----7---5-----------7---5---|

 

E5 B5 A5 F5 E5 B5 A5

e|-----------------------------|

B|-----------------------------|

G|-9---------------9-----------|

D|-9---9---7--3----9---9---7---|

A|-7---9---7--3----7---9---7---|

E|-----7---5--1--------7---5---|

 

 

(She said I can't take this place...)

E5 G#5 C#5 A

e|---------------------------|

B|---------------------------|

G|----------------6----------|

D|--2------6------6------7---|

A|--2------6------4------7---|

E|--0------4-------------5---|

 

(Well she said I can't take this town...)

E5 G#5 C#5 A

e|---------------------------|

B|---------------------------|

G|----------------6----------|

D|--2------6------6------7---|

A|--2------6------4------7---|

E|--0------4-------------5---|

 

 

 

Guitar 1

e|------------------------------------------------------|

B|------------------------------------------------------|

G|------------------------------------------------------|

D|-2------22-------2--------22------2------22--------2--|

A|-2------22-------2--------22------2------22--------2--|

E|-0------00-------0--------00------0------00--------0--|

(let ring)

Guitar 2

e|------------------------------------------------------|

B|------------------------------------------------------|

G|-9-9-9-9-9-9-9-9-9-9-9-9-9-9-9-9-9-9-9-9-9-9-9-9-9-9--|

D|------------------------------------------------------|

A|-7-7-7-7-7-7-7-7-7-7-7-7-7-7-7-7-7-7-7-7-7-7-7-7-7-7--|

E|------------------------------------------------------|

(let ring)

 

Lyrics:

 

No body likes you

Everyone left you

They're all out without you

Having fun

 

Where have all the bastards gone?

The underbelly's accidental high

The dummy failed the crash test

Collecting unemployment checks

You're fucking only along for the ride

 

Where have all the riots gone?

Acid City's model gets pulverized

What's in love is now in debt

On your birth certificate

So strike the fucking match to light this fuse

 

The television's an obstructionist

And you don't even know that you exist.

Standin' still with suit and tie

You better run for your fucking life

 

It's not over 'till you're underground

It's not hope before it's too late

This city's burning. It's not my burden

It's not hope before it's too late

 

There is nothing left to analyze

 

Where will all the martyrs go when the virus cures itself?

And where we will all go when it's too late

 

Well don't look back

 

You're not the Jesus of Suburbia

That St. Jimmy is a figment of

Your father's rage and your mother's love

That's made the idiot America

 

It's not over till you're underground

It's not hope before it's too late

This city's burning. It's not my burden

It's not hope before it's too late

 

She said I can't take this place

I'm leaving it behind

Well she said I can't take this town

I'm leaving you tonight

 

 

 

Return to my Green Day tabs page

The Tablature is Copyright its respective owners.

Sign Up For My Newsletter
Subscribe | Unsubscribe

Site Map | Disclaimer | Privacy Policy | Media Kit | Submissions/Corrections

Website © 2000-2014 mattsmusicpage.com. All rights reserved.

Legal & DMCA: Matt's Music Page has been providing lyrics and tabs in a legal way, paying royalties each year to a few organizations. Then, all lyrics and tabs were removed from the site. Now, there's a new owner to the site, which purchased it August 26, 2014, and he is in negotiation to obtain licensing from BMI at the moment. If you have a specific DMCA request -- please do not hesitate to contact me via the contact button on top. I will do my very best to keep this site fully legal.

Get our toolbar!

 

BRAND NEW KEY OF C HOHNER MINI HARMONICA HARP KEYRING KEYCHAIN KEY RING CHAIN
$8.21
BRAND NEW KEY OF C HOHNER MINI HARMONICA HARP KEYRING KEYCHAIN KEY RING CHAIN picture


RISING SONS BAND *2X3 FRIDGE MAGNET* VOCALS GUITAR MANDOLIN DOBRO HARMONICA SONG
$3.99
RISING SONS BAND *2X3 FRIDGE MAGNET* VOCALS GUITAR MANDOLIN DOBRO HARMONICA SONG picture


Vtg Christmas Angel Baby Girl W Harmonica Boy W Book SET OF 2 W GOLD WINGS
$125.0
Vtg Christmas Angel Baby Girl W Harmonica Boy W Book SET OF 2 W GOLD WINGS  picture


Beautiful Hand Carved Jewelry Trinket Jewelry Box Harmonica Case Bone And Brass
$14.5
Beautiful Hand Carved Jewelry Trinket Jewelry Box Harmonica Case Bone And Brass picture


BRAND NEW* HOHNER BOB DYLAN SIGNATURE LIMITED EDITION HARMONICA COLLECTORS ITEM
$140.19
BRAND NEW* HOHNER BOB DYLAN SIGNATURE LIMITED EDITION HARMONICA COLLECTORS ITEM picture