Your One-Stop Source For
Music Lyrics
Bass and Guitar Tabs
and More...
Music Lyrics Bass and Guitar Tabs

 

The Green Day Guitar Tabs Are Below

Learn To Read Tab
Chords Handbook
Corrections & Additions
Get Official Tab
Green Day tabs @ 911Tabs

LAST OF THE AMERICAN GIRLS - Green Day

-------------------------------------------------------------------------------

Tabbed by: Dan Wright

Email: muzikvlr1714@yahoo.com

 

Tuning: Standard (eBGDAE)

 

The guitar doesn’t start ‘till the beginning of the second verse

 

1 + 2 + 3 + 4 + 1 + 2 + 3 + 4 + 1 + 2 + 3 + 4 + 1 + 2 + 3 + 4 +

e|------------------|------------------|------------------|------------------|

B|------------------|------------------|------------------|------------------|

G|------------------|------------------|------------------|------------------|

D|------------------|------------------|------------------|------------------|

A|--2-2-2-2-2-2-2-2-|--2-2-2-2-2-2-2-2-/--7-7-7-7-7-7-7-7-|--7-6-6-7-7-9-9-9-\

E|------------------|------------------|------------------|------------------|

 

1 + 2 + 3 + 4 + 1 + 2 + 3 + 4 + 1 + 2 + 3 + 4 + 1 + 2 + 3 + 4 +

e|------------------|------------------|------------------|------------------|

B|------------------|------------------|------------------|------------------|

G|------------------|------------------|------------------|------------------|

D|------------------|------------------|------------------|------------------|

A|--2-2-2-2-2-2-2-2-|--2-2-2-2-2-2-2-2-/--9-9-9-9-9-9-9-9-|--9-9-9-9-9-9-9-9-\

E|------------------|------------------|------------------|------------------|

 

1 + 2 + 3 + 4 + 1 + 2 + 3 + 4 + 1 + 2 + 3 + 4 + 1 + 2 + 3 + 4 +

e|------------------|------------------|------------------|------------------|

B|------------------|------------------|------------------|------------------|

G|------------------|------------------|------------------|------------------|

D|------------------|------------------|------------------|------------------|

A|--2-2-2-2-2-2-2-2-|--2-2-2-2-2-2-2-2-/--7-7-7-7-7-7-7-7-|--7-6-6-7-7-9-9-9-\

E|------------------|------------------|------------------|------------------|

 

1 + 2 + 3 + 4 + 1 + 2 + 3 + 4 + 1 + 2 + 3 + 4 + 1 + 2 + 3 + 4 +

e|------------------|------------------|------------------|------------------|

B|------------------|------------------|------------------|------------------|

G|------------------|------------------|------------------|------------------|

D|------------------|------------------|------------------|------------------|

A|--2-2-2-2-2-2-2-2-|--2-2-2-2-2-2-2-2-/--9-9-9-9-9-9-9-9-|--9-9-9-9-9-9-9-9-|

E|------------------|------------------|------------------|------------------|

 

Guitar 1:

1 + 2 + 3 + 4 + 1 + 2 + 3 + 4 + 1 + 2 + 3 + 4 + 1 + 2 + 3 + 4 +

e|------------------|------------------|------------------|------------------|

B|------------------|------------------|--9-9-9-9-9-9-9-9-|--8-8-8-8-8-8-8-8-|

G|------------------|------------------|--9-9-9-9-9-9-9-9-|--9-9-9-9-9-9-9-9-|

D|--9-9-9-9-9-9-9-9-|--9-9-9-9-9-9-9-9-|--9-9-9-9-9-9-9-9-|--9-9-9-9-9-9-9-9-|

A|--9-9-9-9-9-9-9-9-|--9-9-9-9-9-9-9-9-|--7-7-7-7-7-7-7-7-|--7-7-7-7-7-7-7-7-|

E|--7-7-7-7-7-7-7-7-|--7-7-7-7-7-7-7-7-|------------------|------------------|

|

Guitar 2 |

1 + 2 + 3 + 4 + 1 + 2 + 3 + 4 + 1 + 2 + 3 + 4 + 1 + 2 + 3 + 4 + |

e|------------------|------------------|------------------|------------------|

B|--1212121212121212|--1010101010101010|--9-9-9-9-9-12129-|--8-8-8-8-8-8-8-8-|

G|------------------|------------------|------------------|------------------|

D|--9-9-9-9-9-9-9-9-|--7-7-7-7-7-7-7-7-|--6-6-6-6-6-9-9-6-|--5-5-5-5-5-5-5-5-|

A|------------------|------------------|------------------|------------------|

E|------------------|------------------|------------------|------------------|

 

Guitar 1:

1 + 2 + 3 + 4 + 1 + 2 + 3 + 4 + 1 + 2 + 3 + 4 + 1 + 2 + 3 + 4 +

e|------------------|------------------|------------------|------------------|

B|------------------|------------------|------------------|------------------|

G|------------------|------------------|----------9-9-9-9-|----------9-9-9-9-|

D|--9-9-9-9-9-9-9-9-|--4-4-4-r---------|--9-9-9-9-9-9-9-9-|--9-9-9-9-9-9-9-9-|

A|--9-9-9-9-9-9-9-9-|--4-4-4-r---------|--9-9-9-9-7-7-7-7-|--9-9-9-9-7-7-7-7-|

E|--7-7-7-7-7-7-7-7-|--2-2-2-r---------|--7-7-7-7---------|--7-7-7-7---------|

|

Guitar 2 |

1 + 2 + 3 + 4 + 1 + 2 + 3 + 4 + 1 + 2 + 3 + 4 + 1 + 2 + 3 + 4 + |

e|------------------|------------------|------14--16--14--|------14--16--14--|

B|--1212121212121212|--7-7-7-r---------|--1616--16------16|--1616--16--------|

G|------------------|--------r---------|------11--13--11--|------11--13--11--|

D|--9-9-9-9-9-9-9-9-|--4-4-4-r---------|--1313--13------13|--1313--13--------|

A|------------------|------------------|------------------|------------------|

E|------------------|------------------|------------------|------------------|

(higher note is mad by an octave pedal)

Guitar 1:

1 + 2 + 3 + 4 + 1 + 2 + 3 + 4 + 1 + 2 + 3 + 4 + 1 + 2 + 3 + 4 +

e|------------------|------------------|------2-2-r---2-2-|--r---2-2-r---2-2-|

B|------------------|------------------|------4-4-r---4-4-|--r---4-4-r---4-4-|

G|----------9-9-9-9-|----------9-9-9-9-|--r---4-4-r---4-4-|--r---4-4-r---4-4-|

D|--9-9-9-9-9-9-9-9-|--9-9-9-9-9-9-9-9-|--r---------------|------------------|

A|--9-9-9-9-7-7-7-7-|--9-9-9-9-7-7-7-7-|--r---------------|------------------|

E|--7-7-7-7---------|--7-7-7-7---------|------------------|------------------|

|

Guitar 2 |

1 + 2 + 3 + 4 + 1 + 2 + 3 + 4 + 1 + 2 + 3 + 4 + 1 + 2 + 3 + 4 + |

e|------14--16--14--|------14--16--14--|------------------|------------------|

B|--1616--16------16|--1616--16--------|------------------|------------------|

G|------11--13--11--|------11--13--11--|------------------|------------------|

D|--1313--13------13|--1313--13--------|------------------|------------------|

A|------------------|------------------|--2-2-2-2-2-2-2-2-|--2-2-2-2-2-2-2-2-/

E|------------------|------------------|------------------|------------------|

(higher note is mad by an octave pedal)

 

Guitar 1:

1 + 2 + 3 + 4 + 1 + 2 + 3 + 4 + 1 + 2 + 3 + 4 + 1 + 2 + 3 + 4 +

e|--r---------------|------------------|------2-2-r---2-2-|--r---2-2-r---2-2-|

B|--r---5-5-r---5-5-|--r---5-5-r---5-5-|--r---4-4-r---4-4-|--r---4-4-r---4-4-|

G|--r---4-4-r---4-4-|--r---4-4-r---4-4-|--r---4-4-r---4-4-|--r---4-4-r---4-4-|

D|------2-2-r---2-2-|--r---2-2-r---2-2-|--r---------------|------------------|

A|------------------|------------------|------------------|------------------|

E|------------------|------------------|------------------|------------------|

|

Guitar 2 |

1 + 2 + 3 + 4 + 1 + 2 + 3 + 4 + 1 + 2 + 3 + 4 + 1 + 2 + 3 + 4 + |

e|------------------|------------------|------------------|------------------|

B|------------------|------------------|------------------|------------------|

G|------------------|------------------|------------------|------------------|

D|------------------|------------------|------------------|------------------|

A|--7-7-7-7-7-7-7-7-|--7-6-6-7-7-9-9-9-\--2-2-2-2-2-2-2-2-|--2-2-2-2-2-2-2-2-/

E|------------------|------------------|------------------|------------------|

 

Guitar 1:

1 + 2 + 3 + 4 + 1 + 2 + 3 + 4 + 1 + 2 + 3 + 4 + 1 + 2 + 3 + 4 +

e|--r---6-6-r---6-6-|--r---6-6-r---6-6-|--r---2-2-r---2-2-|--r---2-2-r---2-2-|

B|--r---7-7-r---7-7-|--r---7-7-r---7-7-|--r---4-4-r---4-4-|--r---4-4-r---4-4-|

G|--r---6-6-r---6-6-|--r---6-6-r---6-6-|--r---4-4-r---4-4-|--r---4-4-r---4-4-|

D|------------------|------------------|------------------|------------------|

A|------------------|------------------|------------------|------------------|

E|------------------|------------------|------------------|------------------|

|

Guitar 2 |

1 + 2 + 3 + 4 + 1 + 2 + 3 + 4 + 1 + 2 + 3 + 4 + 1 + 2 + 3 + 4 + |

e|------------------|------------------|------------------|------------------|

B|------------------|------------------|------------------|------------------|

G|------------------|------------------|------------------|------------------|

D|------------------|------------------|------------------|------------------|

A|--9-9-9-9-9-9-9-9-|--9-9-9-9-9-9-9-9-\--2-2-2-2-2-2-2-2-|--2-2-2-2-2-2-2-2-/

E|------------------|------------------|------------------|------------------|

 

Guitar 1:

1 + 2 + 3 + 4 + 1 + 2 + 3 + 4 + 1 + 2 + 3 + 4 + 1 + 2 + 3 + 4 +

e|--r---------------|------------------|------2-2-r---2-2-|--r---2-2-r---2-2-|

B|--r---5-5-r---5-5-|--r---5-5-r---5-5-|--r---4-4-r---4-4-|--r---4-4-r---4-4-|

G|--r---4-4-r---4-4-|--r---4-4-r---4-4-|--r---4-4-r---4-4-|--r---4-4-r---4-4-|

D|------2-2-r---2-2-|--r---2-2-r---2-2-|--r---------------|------------------|

A|------------------|------------------|------------------|------------------|

E|------------------|------------------|------------------|------------------|

|

Guitar 2 |

1 + 2 + 3 + 4 + 1 + 2 + 3 + 4 + 1 + 2 + 3 + 4 + 1 + 2 + 3 + 4 + |

e|------------------|------------------|------------------|------------------|

B|------------------|------------------|------------------|------------------|

G|------------------|------------------|------------------|------------------|

D|------------------|------------------|------------------|------------------|

A|--7-7-7-7-7-7-7-7-|--7-6-6-7-7-9-9-9-\--2-2-2-2-2-2-2-2-|--2-2-2-2-2-2-2-2-/

E|------------------|------------------|------------------|------------------|

 

Guitar 1:

1 + 2 + 3 + 4 + 1 + 2 + 3 + 4 + 1 + 2 + 3 + 4 + 1 + 2 + 3 + 4 +

e|--r---6-6-r---6-6-|--r---6-6-r---6-6-|------------------|------------------|

B|--r---7-7-r---7-7-|--r---7-7-r---7-7-|------------------|------------------|

G|--r---6-6-r---6-6-|--r---6-6-r---6-6-|------------------|------------------|

D|------------------|------------------|--9-9-9-9-9-9-9-9-|--9-9-9-9-9-9-9-9-|

A|------------------|------------------|--9-9-9-9-9-9-9-9-|--9-9-9-9-9-9-9-9-|

E|------------------|------------------|--7-7-7-7-7-7-7-7-|--7-7-7-7-7-7-7-7-|

|

Guitar 2 |

1 + 2 + 3 + 4 + 1 + 2 + 3 + 4 + 1 + 2 + 3 + 4 + 1 + 2 + 3 + 4 + |

e|------------------|------------------|------------------|------------------|

B|------------------|------------------|--1212121212121212|--1010101010101010|

G|------------------|------------------|------------------|------------------|

D|------------------|------------------|--9-9-9-9-9-9-9-9-|--7-7-7-7-7-7-7-7-|

A|--9-9-9-9-9-9-9-9-|--9-9-9-9-9-9-9-9-|------------------|------------------|

E|------------------|------------------|------------------|------------------|

 

Guitar 1:

1 + 2 + 3 + 4 + 1 + 2 + 3 + 4 + 1 + 2 + 3 + 4 + 1 + 2 + 3 + 4 +

e|------------------|------------------|------------------|------------------|

B|--9-9-9-9-9-9-9-9-|--8-8-8-8-8-8-8-8-|------------------|------------------|

G|--9-9-9-9-9-9-9-9-|--9-9-9-9-9-9-9-9-|------------------|------------------|

D|--9-9-9-9-9-9-9-9-|--9-9-9-9-9-9-9-9-|--9-9-9-9-9-9-9-9-|--4-4-4-r---------|

A|--7-7-7-7-7-7-7-7-|--7-7-7-7-7-7-7-7-|--9-9-9-9-9-9-9-9-|--4-4-4-r---------|

E|------------------|------------------|--7-7-7-7-7-7-7-7-|--2-2-2-r---------|

|

Guitar 2 |

1 + 2 + 3 + 4 + 1 + 2 + 3 + 4 + 1 + 2 + 3 + 4 + 1 + 2 + 3 + 4 + |

e|------------------|------------------|------------------|------------------|

B|--9-9-9-9-9-12129-|--8-8-8-8-8-8-8-8-|--1212121212121212|--7-7-7-r---------|

G|------------------|------------------|------------------|--------r---------|

D|--6-6-6-6-6-9-9-6-|--5-5-5-5-5-5-5-5-|--9-9-9-9-9-9-9-9-|--4-4-4-r---------|

A|------------------|------------------|------------------|------------------|

E|------------------|------------------|------------------|------------------|

 

Guitar 1:

1 + 2 + 3 + 4 + 1 + 2 + 3 + 4 + 1 + 2 + 3 + 4 + 1 + 2 + 3 + 4 +

e|------------------|------------------|------------------|------------------|

B|------------------|------------------|------------------|------------------|

G|----------9-9-9-9-|----------9-9-9-9-|----------9-9-9-9-|----------9-9-9-9-|

D|--9-9-9-9-9-9-9-9-|--9-9-9-9-9-9-9-9-|--9-9-9-9-9-9-9-9-|--9-9-9-9-9-9-9-9-|

A|--9-9-9-9-7-7-7-7-|--9-9-9-9-7-7-7-7-|--9-9-9-9-7-7-7-7-|--9-9-9-9-7-7-7-7-|

E|--7-7-7-7---------|--7-7-7-7---------|--7-7-7-7---------|--7-7-7-7---------|

|

Guitar 2 |

1 + 2 + 3 + 4 + 1 + 2 + 3 + 4 + 1 + 2 + 3 + 4 + 1 + 2 + 3 + 4 + |

e|------14--16--14--|------14--16--14--|------14--16--14--|------14--16--14--|

B|--1616--16------16|--1616--16--------|--1616--16------16|--1616--16--------|

G|------11--13--11--|------11--13--11--|------11--13--11--|------11--13--11--|

D|--1313--13------13|--1313--13--------|--1313--13------13|--1313--13--------|

A|------------------|------------------|------------------|------------------|

E|------------------|------------------|------------------|------------------|

(higher note is made by an octave pedal)

 

Guitar 1:

1 + 2 + 3 + 4 + 1 + 2 + 3 + 4 + 1 + 2 + 3 + 4 + 1 + 2 + 3 + 4 +

e|------------------|------------------|------------------|------------------|

B|------------------|------------------|------------------|------------------|

G|------------------|------------------|--9-9-9-9-9-9-9-9-|--9-9-9-9-9-9-9-9-|

D|--9-9-9-9-9-9-9-9-|--9-9-9-9-9-9-9-9-|--9-9-9-9-9-9-9-9-|--9-9-9-9-9-9-9-9-|

A|--9-9-9-9-9-9-9-9-|--9-9-9-9-9-9-9-9-|--7-7-7-7-7-7-7-7-|--7-7-7-7-7-7-7-7-|

E|--7-7-7-7-7-7-7-7-|--7-7-7-7-7-7-7-7-|------------------|------------------|

|

Guitar 2 |

1 + 2 + 3 + 4 + 1 + 2 + 3 + 4 + 1 + 2 + 3 + 4 + 1 + 2 + 3 + 4 + |

e|------------------|------------------|------------------|------------------|

B|----------4-5-4---|----------4-5-4---|----------9-109---|----------9-109---|

G|------4---------4-|------4---------4-|------9---------9-|------9---------9-|

D|----4---4---------|----4---4---------|----9---9---------|----9---9---------|

A|--2---------------|--2---------------|--7---------------|--7---------------|

E|------------------|------------------|------------------|------------------|

|

Guitar 3: |

1 + 2 + 3 + 4 + 1 + 2 + 3 + 4 + 1 + 2 + 3 + 4 + 1 + 2 + 3 + 4 + |

e|------------------|------------------|------------------|------------------|

B|------------------|------------------|------------------|------------------|

G|------------------|------------------|------------------|------------------|

D|------------------|------------------|------------------|------------------|

A|--2-2-2-2-2-2-2-2-|--2-2-2-2-2-2-2-2-/--7-7-7-7-7-7-7-7-|--7-6-6-7-7-9-9-9-\

E|------------------|------------------|------------------|------------------|

 

Guitar 1:

1 + 2 + 3 + 4 + 1 + 2 + 3 + 4 + 1 + 2 + 3 + 4 + 1 + 2 + 3 + 4 +

e|------------------|------------------|------------------|------------------|

B|------------------|------------------|------------------|------------------|

G|------------------|------------------|------------------|------------------|

D|--9-9-9-9-9-9-9-9-|--9-9-9-9-9-9-9-9-|--4-4-4-4-4-4-4-4-|--4-4-4-4-4-4-4-4-|

A|--9-9-9-9-9-9-9-9-|--9-9-9-9-9-9-9-9-|--4-4-4-4-4-4-4-4-|--4-4-4-4-4-4-4-4-|

E|--7-7-7-7-7-7-7-7-|--7-7-7-7-7-7-7-7-|--2-2-2-2-2-2-2-2-|--2-2-2-2-2-2-2-2-|

|

Guitar 2 |

1 + 2 + 3 + 4 + 1 + 2 + 3 + 4 + 1 + 2 + 3 + 4 + 1 + 2 + 3 + 4 + |

e|------------------|------------------|------------------|------------------|

B|----------4-5-4---|----------4-5-4---|------------------|------------------|

G|------4--------4--|------4---------4-|----------4b6b43--|----------4b6b43--|

D|----4---4---------|----4---4---------|------4-----------|------4-----------|

A|--2---------------|--2---------------|----4---4---------|----4---4---------|

E|------------------|------------------|------------------|------------------|

|

Guitar 3: |

1 + 2 + 3 + 4 + 1 + 2 + 3 + 4 + 1 + 2 + 3 + 4 + 1 + 2 + 3 + 4 + |

e|------------------|------------------|------------------|------------------|

B|------------------|------------------|------------------|------------------|

G|------------------|------------------|------------------|------------------|

D|------------------|------------------|------------------|------------------|

A|--2-2-2-2-2-2-2-2-|--2-2-2-2-2-2-2-2-/--9-9-9-9-9-9-9-9-|--9-9-9-9-9-9-9-9-\

E|------------------|------------------|------------------|------------------|

 

Guitar 1:

1 + 2 + 3 + 4 + 1 + 2 + 3 + 4 + 1 + 2 + 3 + 4 + 1 + 2 + 3 + 4 +

e|------------------|------------------|------------------|------------------|

B|------------------|------------------|------------------|------------------|

G|------------------|------------------|--9-9-9-9-9-9-9-9-|--9-9-9-9-9-9-9-9-|

D|--9-9-9-9-9-9-9-9-|--9-9-9-9-9-9-9-9-|--9-9-9-9-9-9-9-9-|--9-9-9-9-9-9-9-9-|

A|--9-9-9-9-9-9-9-9-|--9-9-9-9-9-9-9-9-|--7-7-7-7-7-7-7-7-|--7-7-7-7-7-7-7-7-|

E|--7-7-7-7-7-7-7-7-|--7-7-7-7-7-7-7-7-|------------------|------------------|

|

Guitar 2 |

1 + 2 + 3 + 4 + 1 + 2 + 3 + 4 + 1 + 2 + 3 + 4 + 1 + 2 + 3 + 4 + |

e|------------------|------------------|------------------|------------------|

B|----------4-5-4---|----------4-5-4---|----------9-109---|----------9-109---|

G|------4---------4-|------4---------4-|------9---------9-|------9---------9-|

D|----4---4---------|----4---4---------|----9---9---------|----9---9---------|

A|--2---------------|--2---------------|--7---------------|--7---------------|

E|------------------|------------------|------------------|------------------|

|

Guitar 3: |

1 + 2 + 3 + 4 + 1 + 2 + 3 + 4 + 1 + 2 + 3 + 4 + 1 + 2 + 3 + 4 + |

e|------------------|------------------|------------------|------------------|

B|------------------|------------------|------------------|------------------|

G|------------------|------------------|------------------|------------------|

D|------------------|------------------|------------------|------------------|

A|--2-2-2-2-2-2-2-2-|--2-2-2-2-2-2-2-2-/--7-7-7-7-7-7-7-7-|--7-6-6-7-7-9-9-9-\

E|------------------|------------------|------------------|------------------|

 

Guitar 1:

1 + 2 + 3 + 4 + 1 + 2 + 3 + 4 + 1 + 2 + 3 + 4 + 1 + 2 + 3 + 4 +

e|------------------|------------------|------------------|------------------|

B|------------------|------------------|------------------|------------------|

G|------------------|------------------|------------------|------------------|

D|--9-9-9-9-9-9-9-9-|--9-9-9-9-9-9-9-9-|--4-4-4-4-4-4-4-4-|--4-4-4-4-4-4-4-4-|

A|--9-9-9-9-9-9-9-9-|--9-9-9-9-9-9-9-9-|--4-4-4-4-4-4-4-4-|--4-4-4-4-4-4-4-4-|

E|--7-7-7-7-7-7-7-7-|--7-7-7-7-7-7-7-7-|--2-2-2-2-2-2-2-2-|--2-2-2-2-2-2-2-2-|

|

Guitar 2 |

1 + 2 + 3 + 4 + 1 + 2 + 3 + 4 + 1 + 2 + 3 + 4 + 1 + 2 + 3 + 4 + |

e|------------------|------------------|------------------|------------------|

B|----------4-5-4---|----------4-5-4---|------------------|------------------|

G|------4---------4-|------4---------4-|----------4b6b43--|----------4b6b43--|

D|----4---4---------|----4---4---------|------4-----------|------4-----------|

A|--2---------------|--2---------------|----4---4---------|----4---4---------|

E|------------------|------------------|------------------|------------------|

|

Guitar 3: |

1 + 2 + 3 + 4 + 1 + 2 + 3 + 4 + 1 + 2 + 3 + 4 + 1 + 2 + 3 + 4 + |

e|------------------|------------------|------------------|------------------|

B|------------------|------------------|------------------|------------------|

G|------------------|------------------|------------------|------------------|

D|------------------|------------------|------------------|------------------|

A|--2-2-2-2-2-2-2-2-|--2-2-2-2-2-2-2-2-/--9-9-9-9-9-9-9-9-|--9-9-9-9-9-9-9-9-|

E|------------------|------------------|------------------|------------------|

 

Guitar 1:

1 + 2 + 3 + 4 + 1 + 2 + 3 + 4 + 1 + 2 + 3 + 4 + 1 + 2 + 3 + 4 +

e|------------------|------------------|------------------|------------------|

B|------------------|------------------|--9-9-9-9-9-9-9-9-|--8-8-8-8-8-8-8-8-|

G|------------------|------------------|--9-9-9-9-9-9-9-9-|--9-9-9-9-9-9-9-9-|

D|--9-9-9-9-9-9-9-9-|--9-9-9-9-9-9-9-9-|--9-9-9-9-9-9-9-9-|--9-9-9-9-9-9-9-9-|

A|--9-9-9-9-9-9-9-9-|--9-9-9-9-9-9-9-9-|--7-7-7-7-7-7-7-7-|--7-7-7-7-7-7-7-7-|

E|--7-7-7-7-7-7-7-7-|--7-7-7-7-7-7-7-7-|------------------|------------------|

|

Guitar 2 |

1 + 2 + 3 + 4 + 1 + 2 + 3 + 4 + 1 + 2 + 3 + 4 + 1 + 2 + 3 + 4 + |

e|------------------|------------------|------------------|------------------|

B|--1212121212121212|--1010101010101010|--9-9-9-9-9-12129-|--8-8-8-8-8-8-8-8-|

G|------------------|------------------|------------------|------------------|

D|--9-9-9-9-9-9-9-9-|--7-7-7-7-7-7-7-7-|--6-6-6-6-6-9-9-6-|--5-5-5-5-5-5-5-5-|

A|------------------|------------------|------------------|------------------|

E|------------------|------------------|------------------|------------------|

 

Guitar 1:

1 + 2 + 3 + 4 + 1 + 2 + 3 + 4 + 1 + 2 + 3 + 4 + 1 + 2 + 3 + 4 +

e|------------------|------------------|------------------|------------------|

B|------------------|------------------|------------------|------------------|

G|------------------|------------------|------------------|------------------|

D|--9-9-9-9-9-9-9-9-|--9-9-9-9-9-9-9-9-|--4-4-4-4-4-4-4-4-|--4-4-4-4-4-4-4-4-|

A|--9-9-9-9-9-9-9-9-|--9-9-9-9-9-9-9-9-|--4-4-4-4-4-4-4-4-|--4-4-4-4-4-4-4-4-|

E|--7-7-7-7-7-7-7-7-|--7-7-7-7-7-7-7-7-|--2-2-2-2-2-2-2-2-|--2-2-2-2-2-2-2-2-|

|

Guitar 2 |

1 + 2 + 3 + 4 + 1 + 2 + 3 + 4 + 1 + 2 + 3 + 4 + 1 + 2 + 3 + 4 + |

e|------------------|------------------|------------------|------------------|

B|--1212121212121212|--1010101010101010|--7-7-7-7-7-7-7-7-|--1111111111111111|

G|------------------|------------------|------------------|------------------|

D|--9-9-9-9-9-9-9-9-|--7-7-7-7-7-7-7-7-|--4-4-4-4-4-4-4-4-|--8-8-8-8-8-8-8-8-|

A|------------------|------------------|------------------|------------------|

E|------------------|------------------|------------------|------------------|

 

 

Guitar 1:

1 + 2 + 3 + 4 + 1 + 2 + 3 + 4 + 1 + 2 + 3 + 4 + 1 + 2 + 3 + 4 +

e|------------------|------------------|------------------|------------------|

B|------------------|------------------|--9-9-9-9-9-9-9-9-|--8-8-8-8-8-8-8-8-|

G|------------------|------------------|--9-9-9-9-9-9-9-9-|--9-9-9-9-9-9-9-9-|

D|--9-9-9-9-9-9-9-9-|--9-9-9-9-9-9-9-9-|--9-9-9-9-9-9-9-9-|--9-9-9-9-9-9-9-9-|

A|--9-9-9-9-9-9-9-9-|--9-9-9-9-9-9-9-9-|--7-7-7-7-7-7-7-7-|--7-7-7-7-7-7-7-7-|

E|--7-7-7-7-7-7-7-7-|--7-7-7-7-7-7-7-7-|------------------|------------------|

|

Guitar 2 |

1 + 2 + 3 + 4 + 1 + 2 + 3 + 4 + 1 + 2 + 3 + 4 + 1 + 2 + 3 + 4 + |

e|------------------|------------------|------------------|------------------|

B|--1212121212121212|--1010101010101010|--9-9-9-9-9-12129-|--8-8-8-8-8-8-8-8-|

G|------------------|------------------|------------------|------------------|

D|--9-9-9-9-9-9-9-9-|--7-7-7-7-7-7-7-7-|--6-6-6-6-6-9-9-6-|--5-5-5-5-5-5-5-5-|

A|------------------|------------------|------------------|------------------|

E|------------------|------------------|------------------|------------------|

 

Guitar 1:

1 + 2 + 3 + 4 + 1 + 2 + 3 + 4 + 1 + 2 + 3 + 4 + 1 + 2 + 3 + 4 +

e|------------------|------------------|------------------|------------------|

B|------------------|------------------|------------------|------------------|

G|------------------|------------------|----------9-9-9-9-|----------9-9-9-9-|

D|--9-9-9-9-9-9-9-9-|--4-4-4-r---------|--9-9-9-9-9-9-9-9-|--9-9-9-9-9-9-9-9-|

A|--9-9-9-9-9-9-9-9-|--4-4-4-r---------|--9-9-9-9-7-7-7-7-|--9-9-9-9-7-7-7-7-|

E|--7-7-7-7-7-7-7-7-|--2-2-2-r---------|--7-7-7-7---------|--7-7-7-7---------|

|

Guitar 2 |

1 + 2 + 3 + 4 + 1 + 2 + 3 + 4 + 1 + 2 + 3 + 4 + 1 + 2 + 3 + 4 + |

e|------------------|------------------|------14--16--14--|------14--16--14--|

B|--1212121212121212|--7-7-7-r---------|--1616--16------16|--1616--16--------|

G|------------------|------------------|------11--13--11--|------11--13--11--|

D|--9-9-9-9-9-9-9-9-|--4-4-4-r---------|--1313--13------13|--1313--13--------|

A|------------------|------------------|------------------|------------------|

E|------------------|------------------|------------------|------------------|

(higher note is made by an octave pedal)

Guitar 1:

1 + 2 + 3 + 4 + 1 + 2 + 3 + 4 + 1 + 2 + 3 + 4 + 1 + 2 + 3 + 4 +

e|------------------|------------------|------------------|------------------|

B|------------------|------------------|------------------|------------------|

G|----------9-9-9-9-|----------9-9-9-9-|----------9-9-9-9-|----------9-9-9-9-|

D|--9-9-9-9-9-9-9-9-|--9-9-9-9-9-9-9-9-|--9-9-9-9-9-9-9-9-|--9-9-9-9-9-9-9-9-|

A|--9-9-9-9-7-7-7-7-|--9-9-9-9-7-7-7-7-|--9-9-9-9-7-7-7-7-|--9-9-9-9-7-7-7-7-|

E|--7-7-7-7---------|--7-7-7-7---------|--7-7-7-7---------|--7-7-7-7---------|

|

Guitar 2 |

1 + 2 + 3 + 4 + 1 + 2 + 3 + 4 + 1 + 2 + 3 + 4 + 1 + 2 + 3 + 4 + |

e|------14--16--14--|------14--16--14--|------14--16--14--|------14--16--14--|

B|--1616--16------16|--1616--16--------|--1616--16------16|--1616--16--------|

G|------11--13--11--|------11--13--11--|------11--13--11--|------11--13--11--|

D|--1313--13------13|--1313--13--------|--1313--13------13|--1313--13--------|

A|------------------|------------------|------------------|------------------|

E|------------------|------------------|------------------|------------------|

(higher note is made by an octave pedal)

Guitar 1:

1 + 2 + 3 + 4 + 1 + 2 + 3 + 4 + 1 + 2 + 3 + 4 + 1 + 2 + 3 + 4 +

e|------------------|------------------|------------------|------------------|

B|------------------|------------------|------------------|------------------|

G|----------9-9-9-9-|----------9-9-9-9-|------------------|------------------|

D|--9-9-9-9-9-9-9-9-|--9-9-9-9-9-9-9-9-|--9---------------|------------------|

A|--9-9-9-9-7-7-7-7-|--9-9-9-9-7-7-7-7-|--9---------------|------------------|

E|--7-7-7-7---------|--7-7-7-7---------|--7---------------|------------------|

|

Guitar 2 |

1 + 2 + 3 + 4 + 1 + 2 + 3 + 4 + 1 + 2 + 3 + 4 + 1 + 2 + 3 + 4 + |

e|------14--16--14--|------14--16--14--|------------------|------------------|

B|--1616--16------16|--1616--16--------|------------------|------------------|

G|------11--13--11--|------11--13--11--|------------------|------------------|

D|--1313--13------13|--1313--13--------|--13--------------|------------------|

A|------------------|------------------|------------------|------------------|

E|------------------|------------------|------------------|------------------|

(higher note is made by an octave pedal)

 

| / slide up

| \ slide down

| h hammer-on

| p pull-off

| ~ vibrato

| + harmonic

| x Mute note

| r rest

| b bend

===============================================================================

Return to my Green Day Guitar Tabs page

The Tablature is Copyright its respective owners.

Sign Up For My Newsletter
Subscribe | Unsubscribe

Site Map | Disclaimer | Privacy Policy | Media Kit | Submissions/Corrections

Website © 2000-2014 mattsmusicpage.com. All rights reserved.

Legal & DMCA: Matt's Music Page has been providing lyrics and tabs in a legal way, paying royalties each year to a few organizations. Then, all lyrics and tabs were removed from the site. Now, there's a new owner to the site, which purchased it August 26, 2014, and he is in negotiation to obtain licensing from BMI at the moment. If you have a specific DMCA request -- please do not hesitate to contact me via the contact button on top. I will do my very best to keep this site fully legal.

Get our toolbar!

 

Starbucks You Are Here Coffee Mug/Cup KENTUCKY - Horses, Banjo, Blue, White
$19.99
Starbucks You Are Here Coffee Mug/Cup KENTUCKY - Horses, Banjo, Blue, White picture


KNOWLES ROCKWELL HERITAGE "THE BANJO PLAYER" FIRST EDITION 1989 PLATE COA
$5.99
KNOWLES ROCKWELL HERITAGE


Vintage Postcard 1981 Disney World Banjo Kings Main Street USA 1981 Postmark
$4.99
 Vintage Postcard 1981 Disney World Banjo Kings Main Street USA 1981 Postmark picture


Banjo Barometer With Thermometer Hygrometer 490mm
$84.76
Banjo Barometer With Thermometer Hygrometer 490mm picture


ANTIQUE JAPANESE NIPPON FIGURINE SET OF 3 WOMEN GEISHA PLAYING DRUM BANJO FAN
$24.0
ANTIQUE JAPANESE NIPPON FIGURINE SET OF 3 WOMEN GEISHA PLAYING DRUM BANJO FAN picture