Your One-Stop Source For
Music Lyrics
Bass and Guitar Tabs
and More...
Music Lyrics Bass and Guitar Tabs

 

The Tabs Are Below

Learn To Read Tab
Chords Handbook
Corrections & Additions
Get Official Tab
Green Day tabs @ 911Tabs

Date: Thurs, January 14 1999

From: Peter Ferragine (pferragine@interhop.net)

Group: Green Day

Album: 1039/smoothed out slappy hours

Released: 1990 lookout records

Track: 10

Title: the judge's daughter

 

 

verse

 

|-----------------------------------------------------------------|

|-----------------------------------------------------------------|

|---------------------------------5-5-5-5-5-5-5-5-----------------|

|-5-5-5-5-5-5-5-5-3-3-3-3-3-3-3-3-5-5-5-5-5-5-5-5-5-5-5-5-5-5-5-5-|

|-5-5-5-5-5-5-5-5-3-3-3-3-3-3-3-3-3-3-3-3-3-3-3-3-5-5-5-5-5-5-5-5-|

|-3-3-3-3-3-3-3-3-1-1-1-1-1-1-1-1-----------------3-3-3-3-3-3-3-3-|

 

chorus

 

|-----------------------------------------------|

|-----------------------------------------------|

|-5-5-5-5-5-5-5-5-7-7-7-7-7-7-7-7---------------|

|-5-5-5-5-5-5-5-5-7-7-7-7-7-7-7-7-5-5-5-3-5-5-5-|

|-3-3-3-3-3-3-3-3-5-5-5-5-5-5-5-5-5-5-5-3-5-5-5-|

|---------------------------------3-3-3-1-3-3-3-|

 

bridge/outro

 

|-------------------------------------------------------------|

|-------------------------------------------------------------|

|-------------------------------------------------------------|

|-5-5-5-5-3-5-----5-5-5-5-3-5-----5-5-5-5-3-5-----5-5-5-5-3-5-|

|-5-5-5-5-3-5-----5-5-5-5-3-5-----5-5-5-5-3-5-----5-5-5-5-3-5-|

|-3-3-3-3-1-3-----3-3-3-3-1-3-----3-3-3-3-1-3-----3-3-3-3-1-3-|

 

lyrics

 

princess in a schoolgirl's dream may i please speak with you?

i'm having troubles with control and it's all because of you

today i kept on falling down i thought it was the street

so i look down at my shoes they were on the wrong feet

i find it hard to be myself (can you please explain?)

i do not think that it's my health (you're the one to blame)

you're the one i wish i had and now my girlfriend is getting mad

(i cannot call this sane)

today as i was walking down you bumped into me

you said "excuse me" and walked away as i dropped to my knees

i prayed to the being in the sky that my parents told me of

i asked about you but no reply no clues about your love!

my girlfriend left me on the phone i'm pathetically left here alone

(i cannot call this sane)

can we find a way so that you can stay i think i'm gonna pop

 

 

Return to my Green Day tabs page

The Tablature is Copyright its respective owners.

Sign Up For My Newsletter
Subscribe | Unsubscribe

Site Map | Disclaimer | Privacy Policy | Media Kit | Submissions/Corrections

Website © 2000-2014 mattsmusicpage.com. All rights reserved.

Legal & DMCA: Matt's Music Page has been providing lyrics and tabs in a legal way, paying royalties each year to a few organizations. Then, all lyrics and tabs were removed from the site. Now, there's a new owner to the site, which purchased it August 26, 2014, and he is in negotiation to obtain licensing from BMI at the moment. If you have a specific DMCA request -- please do not hesitate to contact me via the contact button on top. I will do my very best to keep this site fully legal.

Get our toolbar!

 

Hard Rock Pin Las Vegas 4th of july red white and blue guitar
$5.0
Hard Rock Pin Las Vegas 4th of july red white and blue guitar picture


Hard Rock Pin Hollywood Fl Bell Girl with dice luggage and guitar
$5.0
Hard Rock Pin Hollywood Fl Bell Girl with dice luggage and guitar picture


Hard Rock Pin Las Vegas King of Clubs Guitar rare only 3 lines of info on back
$5.0
Hard Rock Pin Las Vegas King of Clubs Guitar rare only 3 lines of info on back picture


Hard Rock Pin Edmonton guitar pin
$5.0
Hard Rock Pin Edmonton guitar pin picture


Lladro Guitar Boy #4614 - Beautiful Piece of Lladro
$109.0
Lladro Guitar Boy #4614 - Beautiful Piece of Lladro picture