Your One-Stop Source For
Music Lyrics
Bass and Guitar Tabs
and More...
>Music Lyrics Bass and Guitar Tabs

 

The Tabs Are Below

Learn To Read Tab
Chords Handbook
Corrections & Additions
Get Official Tab
Green Day tabs @ 911Tabs

 

geek stink breath

 

[This was created with TabIt for Windows version 1.3]

 

E :----------------|| ----------------|---------------- 3|

B :----------------|| ----------------|--------5--5---- ||

G :----------------||*----------------|--------5--5----*||

D :----------------||*--5---5---x--x--|-3--3---5--5----*||

A :----------------|| --5---5---x--x--|-3--3---3--3---- ||

E :----------------|| --3---3---x--x--|-------------0-- ||

 

E :----------------|----------------|----------------|

B :----------------|----------------|----------------|

G :-4----4---------|---2------------|-4------------4-|

D :-5----5---------|---3------------|-5------------5-|

A :-5----5-----3--3|---3--x---------|-5------------5-|

E :-3--3-3--0--1--1|---1--x---------|-3------------3-|

 

E :| ----------------|----------------|----------------|

B :| ----------------|----------------|----------------|

G :|*----4----------2|--------------4-|---------2------|

D :|*----5----------3|--------------5-|---------3------|

A :| ----5----3--3--3|--x----5-5----5-|---3--3--3--x-5-|

E :| -3--3--0-1--1--1|--x----3-3----3-|-0-1--1--1--x-3-|

 

E :----------------|| ---- 6|

B :----------------|| ---- ||

G :--4----------2--||*--4-*||

D :--5----------3--||*--5-*||

A :5-5----3--3--3--|| --5- ||

E :3-3--0-1--1--1--|| --3- ||

 

 

Return to my Green Day tabs page

The Tablature is Copyright its respective owners.

Sign Up For My Newsletter
Subscribe | Unsubscribe

Site Map | Disclaimer | Privacy Policy | Media Kit | Submissions/Corrections

Website © 2000-2014 mattsmusicpage.com. All rights reserved.

Legal & DMCA: Matt's Music Page has been providing lyrics and tabs in a legal way, paying royalties each year to a few organizations. Then, all lyrics and tabs were removed from the site. Now, there's a new owner to the site, which purchased it August 26, 2014, and he is in negotiation to obtain licensing from BMI at the moment. If you have a specific DMCA request -- please do not hesitate to contact me via the contact button on top. I will do my very best to keep this site fully legal.

Get our toolbar!

 

"IN CONCERT" M&M's AT DRUMS, GUITAR, BASS & KEYBOARD DIRECT FROM RON LEE
$3700.0


1981 Synare Power Drumming Dramatic Vintage Print Ad
$9.99
1981 Synare Power Drumming Dramatic Vintage Print Ad picture


Ad Walt Disney World Liberty Square Fife Drum Corps Postcard Old Vintage Card PC
$0.5
Ad Walt Disney World Liberty Square Fife Drum Corps Postcard Old Vintage Card PC picture


1967 Decca drum set DMI 750 kit tamborine 3 models BIG color trade print ad
$9.98
1967 Decca drum set DMI 750 kit tamborine 3 models BIG color trade print ad picture


Vintage Large 21"Energizer Bunny in original bag with sunglasses,drum, sandals
$14.99
Vintage Large 21