Your One-Stop Source For
Music Lyrics
Bass and Guitar Tabs
and More...
Music Lyrics Bass and Guitar Tabs

 

The Tabs Are Below

Learn To Read Tab
Chords Handbook
Corrections & Additions
Get Official Tab
Green Day tabs @ 911Tabs

DO DA DA - Green Day

-------------------------------------------------------------------------------

 

Intro:

E---4------------------------------------------------------------------------

A---6----6---3x’s---then...----4----6----------------------------------------

D--------8---------------------6----8----------------------------------------

G----------------------------------------------------------------------------

B----------------------------------------------------------------------------

e----------------------------------------------------------------------------

 

Verses:

E---4--------------4---------------------------------------------------------

A---6----6----4---6---6-------2x’s-------------------------------------------

D--------8----6--------8-----------------------------------------------------

G----------------------------------------------------------------------------

B----------------------------------------------------------------------------

e----------------------------------------------------------------------------

 

Chorus:

Rush into my depression, sacrifice everything.....

E---1----4----1----4---------------------------------------4--------------------

A---3----6----3----6----6----2x’s-----second-time play -6---6------------------

D------------------------8--------------------------------------8---three times-

G-------------------------------------------------------------------------------

B-------------------------------------------------------------------------------

e-------------------------------------------------------------------------------

 

Solo:

E---4--------------4--------------------------------------------------------

A---6----6----4---6---6-------2x’s------------------------------------------

D--------8----6--------8----------------------------------------------------

G---------------------------------------------------------------------------

B---------------------------------------------------------------------------

e---------------------------------------------------------------------------

 

For exact timing and strumming pattern, download it on Napster. It’s only a 1:39.

Tabbed by: mxpxgreenblinkpunk

 

 

Return to my Green Day tabs page

The Tablature is Copyright its respective owners.

Sign Up For My Newsletter
Subscribe | Unsubscribe

Site Map | Disclaimer | Privacy Policy | Media Kit | Submissions/Corrections

Website © 2000-2014 mattsmusicpage.com. All rights reserved.

Legal & DMCA: Matt's Music Page has been providing lyrics and tabs in a legal way, paying royalties each year to a few organizations. Then, all lyrics and tabs were removed from the site. Now, there's a new owner to the site, which purchased it August 26, 2014, and he is in negotiation to obtain licensing from BMI at the moment. If you have a specific DMCA request -- please do not hesitate to contact me via the contact button on top. I will do my very best to keep this site fully legal.

Get our toolbar!