Your One-Stop Source For
Music Lyrics
Bass and Guitar Tabs
and More...
Music Lyrics Bass and Guitar Tabs

 

The Tabs Are Below

Learn To Read Tab
Chords Handbook
Corrections & Additions
Get Official Tab
Green Day tabs @ 911Tabs

 

Author/Artist: Green Day

Title: Deadbeat Holiday

Album: Warning

Transcribed by: Troy Ansell

 

Verse riff

------------------------------------------------------------------------------

------------------------------------------------------------------------------

---------------7-------------------------------------5------------------------

-5-------------7----------------5--------------------5------------------------

-5-------------5----------------5--------------------3------------------------

-3------------------------------3---------------------------------------------

"Wake up the house is on fire, and the cats caught in the dryer"

 

------------------------------------------------------------------------------

------------------------------------------------------------------------------

---------------------------------5-----------------7--------------------------

-5---------2---------------------5-----------------7--------------------------

-5---------2---------------------3-----------------5--------------------------

-3---------0------------------------------------------------------------------

"Philosophy's a liar when your home is your head stone"

 

Pre chorus riff I

--------------------------------------------------------------------------------------------

--------------------------------------------------------------------------------------------

------------------5--------------- 5----------------------4444------5555-----7777----------

-2----------------5-------------5-5-555-----2222-------4444------5555-----7777----------

-2----------------3-------------5-3-555-----2222-------2222------3333-----5555----------

-0------------------------------3----333-----0000-----------------------------------------

[----------------pm--------]

"Last chance to piss it all away, nothing but hell to pay when the lights"

 

Pre chorus riff II

---------------------------------------------------------------------------------

----------------8-----------------------------------------------------------------

-----77---55---5---7-------------------------------------------------------------------

-----77---55---5---7-------------------------------------------------------------------

-----55---55---5---5------------------------------------------------------------------

---------------------------------------------------------------------------------

"are going down......."

 

chorus riff

------------------------------------------------------------------------------

------------------------------------------------------------------------------

-----------------4-------5----------------------------------------------------

----5------------4-------5---------------5------------------------------------

----5------------2-------3---------------5------------------------------------

----3------------------------------------3------------------------------------

"Deadbeat Holiday celebrate your own decay"

 

------------------------------------------------------------------------------

------------------------------------------------------------------------------

------------5----------------------------------------------------7------------

------------5------------------5-----------------3---------------7------------

------------3------------------5-----------------3---------------5------------

-------------------------------3-----------------1-----------------------------

"theres a vacant sign thats hanging high on a noose over your home"

 

 

Song construction:

Verse x 2

Pre chorus I (palm mute 2nd half)

Pre chorus II

Chorus x 2

Verse (palm muted)

Verse

Verse (palm muted)

Verse

Pre chorus I (palm mute 2nd half)

Pre chorus II

Chorus x 2

Pre chorus II x 8

Pre chorus I (palm mute 2nd half)

Pre chorus II

Chorus x 4

end on G chord

Return to my Green Day tabs page

The Tablature is Copyright its respective owners.

Sign Up For My Newsletter
Subscribe | Unsubscribe

Site Map | Disclaimer | Privacy Policy | Media Kit | Submissions/Corrections

Website © 2000-2014 mattsmusicpage.com. All rights reserved.

Legal & DMCA: Matt's Music Page has been providing lyrics and tabs in a legal way, paying royalties each year to a few organizations. Then, all lyrics and tabs were removed from the site. Now, there's a new owner to the site, which purchased it August 26, 2014, and he is in negotiation to obtain licensing from BMI at the moment. If you have a specific DMCA request -- please do not hesitate to contact me via the contact button on top. I will do my very best to keep this site fully legal.

Get our toolbar!

 

1939 LYRIC THEATRE New York PHOTO
$5.83
1939 LYRIC THEATRE New York PHOTO picture


Star Spangled Banner or Marines Hymn lyrics signed by WWII Charles W. Lindberg
$10.0
Star Spangled Banner or Marines Hymn lyrics signed by WWII Charles W. Lindberg picture


OLD LARGE HISTORIC PHOTO OF THE LYRIC THEATRE, SYDNEY c1930s, WAR BONDS BOOTH
$7.42
OLD LARGE HISTORIC PHOTO OF THE LYRIC THEATRE, SYDNEY c1930s, WAR BONDS BOOTH picture


SONG OF REVOLUTION CARD SET WITH 13 MOST FAVORED COMMUNIST SONGS LYRICS + NOTES
$24.99
SONG OF REVOLUTION CARD SET WITH 13 MOST FAVORED COMMUNIST SONGS LYRICS + NOTES picture


OLD LARGE HISTORIC PHOTO OF THE LYRIC THEATRE, SYDNEY c1930s, WAR LOANS BOOTH
$7.42
OLD LARGE HISTORIC PHOTO OF THE LYRIC THEATRE, SYDNEY c1930s, WAR LOANS BOOTH picture