Your One-Stop Source For
Music Lyrics
Bass and Guitar Tabs
and More...
>Music Lyrics Bass and Guitar Tabs

 

The Tabs Are Below

Learn To Read Tab
Chords Handbook
Corrections & Additions
Get Official Tab
Green Day tabs @ 911Tabs

 

Song: When I Come Around

Artist: Green Day

Album: Dookie

 

This tab is a little bit better now. I rushed the one I made before but now it sounds even better.

 

Intro

Gb----4h5p4--

Db--5--------

Ab-----------

Eb-----------

 

Verse/Solo/Outro (Let the last note ring)

Gb------5p4----------------5p4p5----

Db--5-5---------4h5p4--2-2----------

Ab----------5-5------------------3--

Eb----------------------------------

 

 

Gb------5p4----------------5----

Db--5-5---------4h5p4--2-2------

Ab----------5-5--------------3--

Eb------------------------------

 

Chorus

Gb-----------------------------------------------------------------5p4---

Db---------------------------5/7-5---------------------------------------

Ab---------------------------------7-------------------------------------

Eb--5-5-5-5-5-5-7-8-8-8-8-8-----------5-5-5-5-5-5-7-8-8-8-8-8-8----------

 

Intro X1

Verse X6

Chorus X1

Verse X5

Chorus X1

Solo X2

Chorus X1

Outro X2

 

This tab was created by Christian Mangs. Email me at:

Shadow145@hotmail.com

 

Return to my Green Day bass tabs page

The Tablature is Copyright its respective owners.

Sign Up For My Newsletter
Subscribe | Unsubscribe

Site Map | Disclaimer | Privacy Policy | Media Kit | Submissions/Corrections

Website © 2000-2014 mattsmusicpage.com. All rights reserved.

Legal & DMCA: Matt's Music Page has been providing lyrics and tabs in a legal way, paying royalties each year to a few organizations. Then, all lyrics and tabs were removed from the site. Now, there's a new owner to the site, which purchased it August 26, 2014, and he is in negotiation to obtain licensing from BMI at the moment. If you have a specific DMCA request -- please do not hesitate to contact me via the contact button on top. I will do my very best to keep this site fully legal.

Get our toolbar!

 

OLD LARGE HISTORIC PHOTO OF THE LYRIC THEATRE, SYDNEY c1930s, WAR LOANS BOOTH
$5.0
OLD LARGE HISTORIC PHOTO OF THE LYRIC THEATRE, SYDNEY c1930s, WAR LOANS BOOTH picture


OLD LARGE HISTORIC PHOTO OF THE LYRIC THEATRE, SYDNEY c1930s, WAR BONDS BOOTH
$5.77
OLD LARGE HISTORIC PHOTO OF THE LYRIC THEATRE, SYDNEY c1930s, WAR BONDS BOOTH picture


Lied der Deutschen "Deutsche Frauen, Deutsche Treue" Liedtext, Lyrics
$4.0
Lied der Deutschen


Hab' Sonne im Herzen Liedtext Lyrics
$4.0
Hab' Sonne im Herzen Liedtext Lyrics picture


Alaki lyrics reporter - 2002/10 Nobuyoshi Araki (Author) Contents (From "BOOK" d
$89.0
Alaki lyrics reporter - 2002/10 Nobuyoshi Araki (Author) Contents (From