Your One-Stop Source For
Music Lyrics
Bass and Guitar Tabs
and More...
Music Lyrics Bass and Guitar Tabs

 

The Tabs Are Below

Learn To Read Tab
Chords Handbook
Corrections & Additions
Get Official Tab
Green Day tabs @ 911Tabs

 

Green Day

Walking Alone

From: Nimrod

 

Standard Tuning

 

okay. Someone requested this tab. Its REALLY easy...

so here it is:

 

Verse/Intro

 

G-------------------------------

D------------------------------- repeat a couple

A------------------------------- times

E--3-3-3-3-0-0-0-0--------------

 

then:

 

G-----------------

D-----------------

A-3-3-3-3-5-5-5-5-

E-----------------

 

G-------------------------------

D------------------------------- And then back to the

A---------------3-3-3-3-5-5-5-5- G E thingy

E-3-3-1-1-0-0-0------------------

 

That's it!

 

Transcribed by: Michelle

Cheeeela@aol.com If you need any bass tabs, e-mail me

and I'll send 'em

 

Return to my Green Day bass tabs page

The Tablature is Copyright its respective owners.

Sign Up For My Newsletter
Subscribe | Unsubscribe

Site Map | Disclaimer | Privacy Policy | Media Kit | Submissions/Corrections

Website © 2000-2014 mattsmusicpage.com. All rights reserved.

Legal & DMCA: Matt's Music Page has been providing lyrics and tabs in a legal way, paying royalties each year to a few organizations. Then, all lyrics and tabs were removed from the site. Now, there's a new owner to the site, which purchased it August 26, 2014, and he is in negotiation to obtain licensing from BMI at the moment. If you have a specific DMCA request -- please do not hesitate to contact me via the contact button on top. I will do my very best to keep this site fully legal.

Get our toolbar!