Your One-Stop Source For
Music Lyrics
Bass and Guitar Tabs
and More...
Music Lyrics Bass and Guitar Tabs

 

The Tabs Are Below

Learn To Read Tab
Chords Handbook
Corrections & Additions
Get Official Tab
Green Day tabs @ 911Tabs

 

Song: She

Artist: Green Day

Album: Dookie

 

Intro

Gb-------------------------------------------------------

Db--5-5-5-5-5-5-5/7---------------------------3-3-3-3-3--

Ab------------------5-5-5-5-5-5-0-3-3-3-3-3-3------------

Eb-------------------------------------------------------

 

Gb-----------------------------------------------------------------

Db--5-5-5-5-5-5-5/7-----------------------4h5-4h5-4h5--------------

Ab------------------5-5-5-5-5-5-0-3-3-3-3--------------------------

Eb----------------------------------------------------3-3-3-3-3-3--

 

Chorus X2 X3

Gb-----------------------------------------|-------------------|---------------

Db--------------------------3h5------------|-------------------|---------------

Ab--5-5-5-5-5-5-5-3-3-3-2-3----------------|--3-3-3-3----------|--3h5-5-5-5-5--

Eb------------------------------3-3-3-3-3--|----------3-3-3-3--|---------------

 

2nd Verse

Gb-------------------------------------------------------------

Db-------------------------------------------------------------

Ab----------------5-5-5-5-5-5-5-3-3-3-3-3-3-3-----3-3----------

Eb--3-3-3-3-3-3-3-----------------------------3-3-----3-3-3-3--

 

Gb-------------------------------------------------------------------

Db--------------------------------------4h5-4h5-4h5------------------

Ab----------------5-5-5-5-5-5-5-3-3-3-3-----------------3-3----------

Eb--3-3-3-3-3-3-3-----------------------------------3-3-----3-3-3-3--

 

Bridge

Gb---------------------------------------------------------------------

Db--------------------------7-5p4------------4h5-4h5-4h5---------------

Ab----------------5-5-5-5-5-------7--3-3-3-3------------------3-3------

Eb--3-3-3-3-3-3-3-----------------------------------------3-3-----3-3--

 

Gb---------------------------------------------------------------------------

Db----------------------------4h5-7-5p4------------4h5-4h5-4h5---------------

Ab----------------5-5-5-5-5-7-----------7--3-3-3-3------------------3-3------

Eb--3-3-3-3-3-3-3-----------------------------------------------3-3-----3-3--

 

 

Verse X1

Chorus X1

2nd Verse X1

Chorus X1

Bridge X1

Chorus X1

 

 

This tab was created by Christian Mangs. Email me at:

Shadow145@hotmail.com

 

Return to my Green Day bass tabs page

The Tablature is Copyright its respective owners.

Sign Up For My Newsletter
Subscribe | Unsubscribe

Site Map | Disclaimer | Privacy Policy | Media Kit | Submissions/Corrections

Website © 2000-2014 mattsmusicpage.com. All rights reserved.

Legal & DMCA: Matt's Music Page has been providing lyrics and tabs in a legal way, paying royalties each year to a few organizations. Then, all lyrics and tabs were removed from the site. Now, there's a new owner to the site, which purchased it August 26, 2014, and he is in negotiation to obtain licensing from BMI at the moment. If you have a specific DMCA request -- please do not hesitate to contact me via the contact button on top. I will do my very best to keep this site fully legal.

Get our toolbar!

 

Starbucks You Are Here Coffee Mug/Cup KENTUCKY - Horses, Banjo, Blue, White
$19.99
Starbucks You Are Here Coffee Mug/Cup KENTUCKY - Horses, Banjo, Blue, White picture


KNOWLES ROCKWELL HERITAGE "THE BANJO PLAYER" FIRST EDITION 1989 PLATE COA
$5.99
KNOWLES ROCKWELL HERITAGE


Vintage Postcard 1981 Disney World Banjo Kings Main Street USA 1981 Postmark
$4.99
 Vintage Postcard 1981 Disney World Banjo Kings Main Street USA 1981 Postmark picture


Banjo Barometer With Thermometer Hygrometer 490mm
$84.76
Banjo Barometer With Thermometer Hygrometer 490mm picture


ANTIQUE JAPANESE NIPPON FIGURINE SET OF 3 WOMEN GEISHA PLAYING DRUM BANJO FAN
$24.0
ANTIQUE JAPANESE NIPPON FIGURINE SET OF 3 WOMEN GEISHA PLAYING DRUM BANJO FAN picture