Your One-Stop Source For
Music Lyrics
Bass and Guitar Tabs
and More...
Music Lyrics Bass and Guitar Tabs

 

The Tabs Are Below

Learn To Read Tab
Chords Handbook
Corrections & Additions
Get Official Tab
Green Day tabs @ 911Tabs

 

Song:Scattered

Band:Green Day

Album:Nimrod

tabbed by:Sim H, bassist with WASTED (up and coming kick ass punk band)

 

 

intro

 

G:---------------------------------------------------------------

D:---------------------------------------------------------------

A:------------ --------------------------------------------------

E:--7--7--7-7--4-5-4-0--0-0-0-0---x3-then after you do

E:-7--7--7-7-0-0-7-7-7-7-7-7-

 

verse x 2

G:---------------------------------------------------------------

D:---------------------------------------------------------------

A:---------------------------------------------------------------

E:--0-0-0-0-0-0-0-0-0-0-4-4-4-4-4-4-4-4-4-4-4-5-5-5-5-5-5-5-5-7-7-7-7-7-7-7

 

chorus x2

G:---------------------------------------------------------------

D:---------------------------------------------------------------

A:----------7-7-7-7---------------------------------------7--7-7--7-7-7-7

E:--9-9-9------------7-7-7--5-5-5--0--2-2-2--5-5-5-5-----

 

solo : I'm not to happy with this but it's probably only slightly out

G:---------------------------------------------------------------

D:---------------------------------------------------------------

A:------2-2-----2-2-----2-2-----------------------------------

E:--0-0------0-0----0-0------0-0-0-0-0-0-0-0-0-0-4-4-4- back to verse

 

outro : this is just the same as the chorus but with this bit at the very

end

G:---------------------------------------------------------------

D:---------------------------------------------------------------

A:--2--4--------------------7--7-7--7-7-7-7------------------

E:---------2-2-2--5-5-5-5-------------------------------------

 

I don't know if the rythem is entirely correct but just listen to the

song a couple of times and you'll get it.

 

I hope this is of some use to some punked up bassist.

 

Green Day and The Offspring kick ass !!!

 

Return to my Green Day bass tabs page

The Tablature is Copyright its respective owners.

Sign Up For My Newsletter
Subscribe | Unsubscribe

Site Map | Disclaimer | Privacy Policy | Media Kit | Submissions/Corrections

Website © 2000-2014 mattsmusicpage.com. All rights reserved.

Legal & DMCA: Matt's Music Page has been providing lyrics and tabs in a legal way, paying royalties each year to a few organizations. Then, all lyrics and tabs were removed from the site. Now, there's a new owner to the site, which purchased it August 26, 2014, and he is in negotiation to obtain licensing from BMI at the moment. If you have a specific DMCA request -- please do not hesitate to contact me via the contact button on top. I will do my very best to keep this site fully legal.

Get our toolbar!