Your One-Stop Source For
Music Lyrics
Bass and Guitar Tabs
and More...
Music Lyrics Bass and Guitar Tabs

 

The Tabs Are Below

Learn To Read Tab
Chords Handbook
Corrections & Additions
Get Official Tab
Green Day tabs @ 911Tabs

BAND: GREEN DAY

SONG: ROAD TO ACCEPTANCE

ALBUM: 1039/SMOOTH

TABBER: BLINKFAN

 

THE FILLS IN THIS SONG ARE FAIRLY HARD AND TOOK ME A WHILE

COS THERE IS NO GOOD TABS OF THIS SONG ON THE NET !!!!

 

INTRO

 

G---------------------|

D---------------------|

A---5-5-5-5-5-5-5-5-5-|

E---------------------|

 

VERSE 1

 

G-----------------------------------7-5-4h5p4----------------------------------------------

D------------------------------------------------------------------------------------------

A---0h5-5-5-5-5-5-5-0h5-5-5-5-5-5-5-----------5--5-5-5-5-5-5-5-5-0h5-5-5-5-5-5-5-5-5-5-5-5-

E------------------------------------------------------------------------------------------

 

G----------------------------------------|

D----------------------------------------|

A---5-5-5-0h5-5-5-5-5-5-5-5-5-5-5--------|

E----------------------------------------|

 

PRE-CHORUS X2

 

G-----------------------------------------------------------|

D-----------------------------------------------------------|

A---2-2-2-2-2-2-2-0-0-0-0-0-0-0----33------------33---------|

E-------------------------------00----3-3333--00----3-3333--|

 

CHORUS 1 DON'T PLAY AFTER THE STARS THE LAST TIME

 

G--------------------------------------------------------*-7-5-4h5p4--------|

D-------------------------------3------------------------*------------------|

A---5-5-5-5-5-5h7p5--3-3-3-3-3p2-------------3-5-5-5-5-5-*-----------5-5-5-5|

E---------------------------------3-3-3-3-3p2------------*------------------|

 

POST-CHORUS

 

G------------------------------------------------|

D------------------------------------------------|

A---5-5-5--------5-5-5--------5-5-5--------------|

E---------3-3-3--------3-3-3--------3-3-3-3-3-3--|

 

RIFF

 

G-------------------------7-5-4h5p4---|

D-------------------------------------|

A---5-5-5-5-5-5-5-5-5-5-5-----------5-|

E-------------------------------------|

 

VERSE 2

 

G---------------------------------------------------------------------------------------

D---------------------------------------------------------------------------------------

A-5-5-5-5-5-5-0h5-5-5-5-5-5-5-0h5-5-5-5-5-5-5-0h5-5-5-5-5-5-5-5-5-5-5-5-5-5-5-5-5-5-5-5-

E---------------------------------------------------------------------------------------

 

PRE-CHORUS X2

 

G-----------------------------------------------------------|

D-----------------------------------------------------------|

A---2-2-2-2-2-2-2-0-0-0-0-0-0-0----33------------33---------|

E-------------------------------00----3-3333--00----3-3333--|

 

CHORUS 2

 

G---------------------------------------------------------*-------7-5-4----|

D---------------------------------3-----------------------*-----5-------5--|

A---5-5-5-5-5-555h7p5--3-3-3-3-3p2--------------5-5-5-5-5-*-5-7-----------5|

E-----------------------------------3-3-3-3-3p2-----------*----------------|

 

POST-CHORUS

 

G------------------------------------------------|

D------------------------------------------------|

A---5-5-5--------5-5-5--------5-5-5--------------|

E---------3-3-3--------3-3-3--------3-3-3-3-3-3--|

 

BASS SOLO

 

G---------------------------------------------------------7-5-4h5p4--------|

D-------------------------------3------------------------------------------|

A---5-5-5-5-5-5h7p5--3-3-3-3-3p2-------------3-5-5-5-5-5------------5-5-5-5|

E---------------------------------3-3-3-3-3p2------------------------------|

 

G----------------------------------------------------------------7-5-4----|

D------------------------------5-3-2---------------------------5-------5--|

A---5-5-5-5-5-5h7p5--3-3-3-3-3------------------5-5-5-5-5--5-7-----------5|

E-----------------------------------3-3-3-3-3p2---------------------------|

 

G---------------------------------------------------------7-5-4h5p4--------|

D-------------------------------3------------------------------------------|

A---5-5-5-5-5-5h7p5--3-3-3-3-3p2-------------3-5-5-5-5-5------------5-5-5-5|

E---------------------------------3-3-3-3-3p2------------------------------|

 

G--------------------------------------------------------------|

D--------------------------------------------------------------|

A---5-5-5-5-5-5h7p5--3-3-3-3-3-2-0------------5-5-5-3-5-5-5-5-5|

E----------------------------------3-3-3-3-3p2-----------------|

 

POST-CHORUS

 

G------------------------------------------------|

D------------------------------------------------|

A---5-5-5--------5-5-5--------5-5-5--------------|

E---------3-3-3--------3-3-3--------3-3-3-3-3-3--|

 

OUTRO

 

G---------------------------------------------|

D---------------------------------------------|

A---555-3-----555-3-----555-3---------------5~|

E---------3-3-------3-3-------3-3-------------|

 

 

Return to my Green Day bass tabs page

The Tablature is Copyright its respective owners.

Sign Up For My Newsletter
Subscribe | Unsubscribe

Site Map | Disclaimer | Privacy Policy | Media Kit | Submissions/Corrections

Website © 2000-2014 mattsmusicpage.com. All rights reserved.

Legal & DMCA: Matt's Music Page has been providing lyrics and tabs in a legal way, paying royalties each year to a few organizations. Then, all lyrics and tabs were removed from the site. Now, there's a new owner to the site, which purchased it August 26, 2014, and he is in negotiation to obtain licensing from BMI at the moment. If you have a specific DMCA request -- please do not hesitate to contact me via the contact button on top. I will do my very best to keep this site fully legal.

Get our toolbar!

 

Starbucks You Are Here Coffee Mug/Cup KENTUCKY - Horses, Banjo, Blue, White
$19.99
Starbucks You Are Here Coffee Mug/Cup KENTUCKY - Horses, Banjo, Blue, White picture


KNOWLES ROCKWELL HERITAGE "THE BANJO PLAYER" FIRST EDITION 1989 PLATE COA
$5.99
KNOWLES ROCKWELL HERITAGE


Vintage Postcard 1981 Disney World Banjo Kings Main Street USA 1981 Postmark
$4.99
 Vintage Postcard 1981 Disney World Banjo Kings Main Street USA 1981 Postmark picture


Banjo Barometer With Thermometer Hygrometer 490mm
$84.76
Banjo Barometer With Thermometer Hygrometer 490mm picture


ANTIQUE JAPANESE NIPPON FIGURINE SET OF 3 WOMEN GEISHA PLAYING DRUM BANJO FAN
$24.0
ANTIQUE JAPANESE NIPPON FIGURINE SET OF 3 WOMEN GEISHA PLAYING DRUM BANJO FAN picture