Your One-Stop Source For
Music Lyrics
Bass and Guitar Tabs
and More...
Music Lyrics Bass and Guitar Tabs

 

The Tabs Are Below

Learn To Read Tab
Chords Handbook
Corrections & Additions
Get Official Tab
Green Day tabs @ 911Tabs

 

Green Day

Redundant

From:Nimrod

 

Standard Tuning

 

Intro

 

G---------------------------------

D---------------------------------

A--0-0----------------------------

E------4-4-3-3-2-2-----------------

 

G---------------------------------

D---------------0-0-------2-2-----

A-----------2-2------0-0-------0-0-

E-2-2-2-2-0------------------------

 

Verse

G------------------------------------

D---------0-0-0-0----------0---------

A-0-0-0-0---------0-0-0-0-------0-0-0

E-----------------------------4------

 

G------------------------------------

D------------------------------------

A-----------------(----2-2-2--------)

E-0-0-0-0-0--3-3-(2-2---------0-0-0--)

 

Chorus

 

G-----------------------------------

D-----------------------------------

A-0-0-0-0---------------------------

E---------4-4-4-4-3-3-3-3-2-2-2-2---

 

End-bit of chorus

 

G----------------

D---0-0-----2-2--

A-2-----0-0------

E----------------

 

There is a part of the song where the verse breaks up, and

they add a part at the end of each verse which I put in the

bubble. It would take forever to tab out exactly how the

song is, but the tab is all here, I think you can figure

out the order.

 

Transcribed by: Michelle

Cheeeela@aol.com

 

Return to my Green Day bass tabs page

The Tablature is Copyright its respective owners.

Sign Up For My Newsletter
Subscribe | Unsubscribe

Site Map | Disclaimer | Privacy Policy | Media Kit | Submissions/Corrections

Website © 2000-2014 mattsmusicpage.com. All rights reserved.

Legal & DMCA: Matt's Music Page has been providing lyrics and tabs in a legal way, paying royalties each year to a few organizations. Then, all lyrics and tabs were removed from the site. Now, there's a new owner to the site, which purchased it August 26, 2014, and he is in negotiation to obtain licensing from BMI at the moment. If you have a specific DMCA request -- please do not hesitate to contact me via the contact button on top. I will do my very best to keep this site fully legal.

Get our toolbar!