Your One-Stop Source For
Music Lyrics
Bass and Guitar Tabs
and More...
Music Lyrics Bass and Guitar Tabs

 

The Tabs Are Below

Learn To Read Tab
Chords Handbook
Corrections & Additions
Get Official Tab
Green Day tabs @ 911Tabs

 

Brain Stew

Green Day

 

 

Note:

Palm Mute the whole song

 

Riff 1:

e|----------------------------------|

B|----------------------------------|

G|----------------------------------|

D|-9-9-----8-8-----7-7-----6-6--5-5-|

A|-9-9-----8-8-----7-7-----6-6--5-5-|

E|-7-7-----6-6-----5-5-----4-4--3-3-|

 

Riff 2:

e|-------------------------------------------|

B|-------------------------------------------|

G|-------------------------------------------|

D|-9-9-(9)----8-8-(8)----7-7-(7)----6-6--5-5-|

A|-9-9-(9)----8-8-(8)----7-7-(7)----6-6--5-5-|

E|-7-7-(7)----6-6-(6)----5-5-(5)----4-4--3-3-|

 

Riff 3:

e|-----------------------------------------------------------|

B|-----------------------------------------------------------|

G|-----------------------------------------------------------|

D|-9-9--x-x-x-x-x--8-8--x-x-x-x-x--7-7--x-x-x-x-x--6-6-x-5-5-|

A|-9-9--x-x-x-x-x--8-8--x-x-x-x-x--7-7--x-x-x-x-x--6-6-x-5-5-|

E|-7-7--x-x-x-x-x--6-6--x-x-x-x-x--5-5--x-x-x-x-x--4-4-x-3-3-|

 

 

PROCEDURE

Do Riff 1, 6 Times

Do Riff 2, 6 Times

Do Riff 3, 2 Times

Do Riff 2, 4 Times

Do Riff 3, 2 Times

Do Riff 2, 4 Times

Do Riff 3, 6 Times

 

LYRICS

I'm having trouble trying to sleep

I'm counting sheep but running out

As time ticks by

And still I try

No rest for crosstops in my mind

On my own ... here we go

 

My eyes feel like they're going to bleed

Dried up and bulging out my skull

My mouth is dry

My face is numb

Fucked up and spun out in my room

On my own ... here we go

 

My mind is set on overdrive

The clock is laughing in my face

A crooked spine

My sense dulled

Passed the point of delirium

On my own ... here we go

 

 

 

 

Return to my Green Day tabs page

The Tablature is Copyright its respective owners.

Sign Up For My Newsletter
Subscribe | Unsubscribe

Site Map | Disclaimer | Privacy Policy | Media Kit | Submissions/Corrections

Website © 2000-2014 mattsmusicpage.com. All rights reserved.

Get our toolbar!