Your One-Stop Source For
Music Lyrics
Bass and Guitar Tabs
and More...
>Music Lyrics Bass and Guitar Tabs

 

The Tabs Are Below

Learn To Read Tab
Chords Handbook
Corrections & Additions
Get Official Tab
Green Day tabs @ 911Tabs

 

Song: Nice Guys Finish Last

Artist: Green Day

Album: Nimrod (Track 1)

Tabbed by: Scott Kaufman--Mrgsprsnts@aol.com

Corrections Made by: James Gordon (JPG228@Hotmail.com)

 

I have quit a time figuring this song out. Well, Enjoy

 

Key----------- []= Palm Mute

Pre-Intro Intro

G|-------------|-----------------------------------------------------------

D|-------------|--------------------679------------------------------------

A|-------------|---77777--------77-----------------------77777-------776767

E|[5555555555]-|55--------55555--------55555-77777-55555-------55555-------

 

Bridge HERE, THE NOTES AREE PLAYED IN SETS OF THREE

G|-------------------------------------------------------------------------

D|-------------------------------------------------------------------------

A|--7-777-777-777-777-777-777-777-777-777-777-777---------------777-777-777

E|55---------------------------------------------555-555-555-555-----------

 

Verse 1

G|---------------------------------|

D|---------------------------------|

A|-77-7777-77-7777-----------------|

E|-----------------55-5555-55-5555-|

 

Verse 2

G|-------------------------------------------------|

D|-------------------------------------------------|

A|-77-7777-77-7777-----------------22-2222-22-2222-|

E|-----------------22-2222-22-2222-----------------|

 

Chorus

G|------------------|

D|------------------|

A|-77-7777----------|

E|---------55555555-|

 

BASS SOLO >>>>AM NOT TOO SURE OF THIS BUT IT IS SOMETHING LIKE THIS!

G|----------------|

D|----------------|

A|--------77-99-7-|

E|777-999---------|

 

Ending

G|-----------------|

D|-----------------|

A|----7767767----7-|

E|-55---------55---|

 

Order of the whole song!!!!!!1

 

Pre intro x1

Intro x1

Bridge x1

Verse 1 x3

Verse 2 x1

Chorus x3

Bass Solo x1

Bridge x1

Verse 1 x3

Verse 2 x1

Chorus x3

Bass Solo x1

Chorus x3

Bass Solo x1

Intro x1 Mike Dirnt changes the end of the intro just a tad

Chorus x3

Bass Solo x1

Chorus x3

Bass Solo x1

Ending x1

 

There You Go!!!!!!!!

 

Return to my Green Day bass tabs page

The Tablature is Copyright its respective owners.

Sign Up For My Newsletter
Subscribe | Unsubscribe

Site Map | Disclaimer | Privacy Policy | Media Kit | Submissions/Corrections

Website © 2000-2014 mattsmusicpage.com. All rights reserved.

Legal & DMCA: Matt's Music Page has been providing lyrics and tabs in a legal way, paying royalties each year to a few organizations. Then, all lyrics and tabs were removed from the site. Now, there's a new owner to the site, which purchased it August 26, 2014, and he is in negotiation to obtain licensing from BMI at the moment. If you have a specific DMCA request -- please do not hesitate to contact me via the contact button on top. I will do my very best to keep this site fully legal.

Get our toolbar!

 


USSR Vintage mouth organ harmonica Kharkiv . Made in Soviet Union. Original
$
USSR Vintage mouth organ harmonica Kharkiv . Made in Soviet Union. Original picture


USSR Soviet mouth organ harmonica Satellite . Original
$
USSR Soviet mouth organ harmonica Satellite . Original picture


USSR Soviet mouth organ harmonica Pioneer Kharkov . Original
$
USSR Soviet mouth organ harmonica Pioneer Kharkov . Original picture


ANTIQUE CIVIL WAR ERA AMERICAN HARMONICA ARTISTIC MUSUEM QUALITY TINTYPE PHOTO
$
ANTIQUE CIVIL WAR ERA AMERICAN HARMONICA ARTISTIC MUSUEM QUALITY TINTYPE PHOTO picture


VINTAGE ORIGINAL 1920's HOHNER HARMONICA KEY WIND REVOLVING STORE DISPLAY UNIT
$
VINTAGE ORIGINAL 1920's HOHNER HARMONICA KEY WIND REVOLVING STORE DISPLAY UNIT picture


M. HOHNER BLUES HARP MADE IN GERMANY MARINE BAND HARMONICA ~105
$
M. HOHNER BLUES HARP MADE IN GERMANY MARINE BAND HARMONICA ~105 picture


BRAND NEW HOHNER MEISTERKLASSE D HARMONICA 10 HOLE 20 REED 580/20 HARP
$
BRAND NEW HOHNER MEISTERKLASSE D HARMONICA 10 HOLE 20 REED 580/20 HARP picture


M. HOHNER BLUES HARP MADE IN GERMANY GREAT LITTLE HARP HARMONICA ~105
$
M. HOHNER BLUES HARP MADE IN GERMANY GREAT LITTLE HARP HARMONICA ~105 picture


Handsome young guy playing the harmonica photo portrait nice look USSR Vintage
$
Handsome young guy playing the harmonica photo portrait nice look USSR Vintage picture


Dancing Lesson Boys Playing Music Fiddle Violin Harmonica Girls Stereoview K346
$
Dancing Lesson Boys Playing Music Fiddle Violin Harmonica Girls Stereoview K346 picture