Your One-Stop Source For
Music Lyrics
Bass and Guitar Tabs
and More...
Music Lyrics Bass and Guitar Tabs

 

The Tabs Are Below

Learn To Read Tab
Chords Handbook
Corrections & Additions
Get Official Tab
Green Day tabs @ 911Tabs

Band: Greenday

Song: Maria

Performed By: Mike Dirnt

Tabbed By: Bob Gedarovich (FinalGambit) [Robert.Gedarovich@marist.edu]

Instrument Used: 4 String Bass, Standard Tuning

Notes: Purpose of this tab was to be relatively accurate, easy, and fun, not necessarily perfect. Send corrections to Robert.Gedarovich@marist.edu. This is my second offical tab, be gentle.

 

[[[KEY]]] -----> X= Rest /= Slide Down \= Slide Up ~= Let Note Ring h= hammeron p= pull *Special Notation

 

Guitar Intro [No Bass]

 

Intro

G|--------------| X4

D|--------------|

A|-555-0~-0*-X--|

E|--------------|

 

*Mute this note.

 

Verse

G|----------------------| X4

D|----------------------|

A|-------7~-777777777*--|

E|-5h4-0----------------|

 

*These can also be played as 12 notes on the E string.

 

Intro X2

Verse X4

 

Chorus ["Mariiiiiiia.."]

G|-----------------------------| X3

D|-------7h6-4-----------------|

A|-5~-5~-------0~-00~-0-0-0-0--|

E|-----------------------------|

 

Chorus End

G|---------------------------------| X1

D|---------------------------------|

A|-7-7-7----2~-22~-77777-X-0-/7-X--|

E|-------4h5-------------X------X--|

 

Bass Solo [Its quiet, around 1:21], Then...

G|--------------------| X3 G|------------------| X1

D|-----9-7-9-7-6-4-6--| D|--9-7-9-----------|

A|----7---------------| A|-7------55555555--|

E|-(7)*---------------| E|------------------|

 

*The first 7 note on the E string should only be played the first time.

 

Chorus X4

chorus End x1

Chorus X4

Intro X2

Verse X4

Chorus X3

Chorus End X1

Chorus X3

 

Outro

G|---------------------------------------------| X1

D|---9-7-9--9-7-9--9-7--9--7-9-7-6-4-6---------|

A|-7-------7-----7-----7---------------555-0~--|

E|---------------------------------------------|

 

 

Return to my Green Day bass tabs page

The Tablature is Copyright its respective owners.

Sign Up For My Newsletter
Subscribe | Unsubscribe

Site Map | Disclaimer | Privacy Policy | Media Kit | Submissions/Corrections

Website © 2000-2014 mattsmusicpage.com. All rights reserved.

Legal & DMCA: Matt's Music Page has been providing lyrics and tabs in a legal way, paying royalties each year to a few organizations. Then, all lyrics and tabs were removed from the site. Now, there's a new owner to the site, which purchased it August 26, 2014, and he is in negotiation to obtain licensing from BMI at the moment. If you have a specific DMCA request -- please do not hesitate to contact me via the contact button on top. I will do my very best to keep this site fully legal.

Get our toolbar!