Your One-Stop Source For
Music Lyrics
Bass and Guitar Tabs
and More...
Music Lyrics Bass and Guitar Tabs

 

The Tabs Are Below

Learn To Read Tab
Chords Handbook
Corrections & Additions
Get Official Tab
Green Day tabs @ 911Tabs

 

Song: JAR

Artist: Greenday

Originally tabbed by amagnan@bonita.cerf.fred.org

Retabbed by Kickdoc@aol.com

 

I was planning on playing this song at a party and was too bored to

figure it out myself, so I went to BTA only to find out I had a lot

more work than I thought. Oh well, its cool I guess. I am pretty

sure Mike Dirnt uses a pick, but a boost of treble is good for non-pickers

like myself. It sounds pretty good to me so whatever.

 

INTRO RIFF **play fast**

G -|--------6-------------6---------6--------6---------

D -|-4--4----------------------------------------------

A -|------------0h4--4----------------0h4-4------------

E -|------------------------0h4--4---------------------

 

Which leads into Part 2 (which is repeated in song)

G -|----------------------------------------------------

D -|-------------------------------3--------------------

A -|-4-------------------------4h6----6--4--------------

E -|---4--2--2--2--2--2---4--4----------------2-2-2-2---

 

 

G -|----------------------------------------------------

D -|---4--4---------------------------------------------

A -|-----------4--4-------------------------------------

E -|----------------------------------------------------

 

 

CHORUS

G -|----------------------------------------------------

D -|----------------------------------------------------

A -|----------------------4-4-4-4-4-4-4-4-4-4-----------

E -|-2-2-2-2-2-2-2-2-2-2-----------------------4-4-4-4--

 

G -|----------------------------------------------------

D -|----------------------------------------------------

A -|--------------------------4-4-4-4-4-4------------

E -|-4-4-4-4-4-4---2-2-2-2-2--------------4-4-4-4-4-4-4-

 

G -|----------------------------------------------------

D -|----------------------------------------------------

A -|----------------------------------------------------

E -|-4-4-4---------------------------------------------

 

PART 4

G -|----------------------------------------------------

D -|----------------------------------------------------

A -|-2-2-2-2-2-2-2----------------4-4-4-4-4-4-4---------

E -|---------------2-2-2-2-2-2-2------------------4-4-4-

 

G -|----------------------------------------------------

D -|----------------------------------------------------

A -|---------2-2-2-2-2-2-2------------------------------

E -|4-4-4-4---------------2-2-2-2-2-2-2--4-4-4-4-4-4-4-4

 

 

STRUCTURE

Intro riff x 2

Part Two x 7

Chorus x 2

Intro riff x 2

Part Two x 4

Chorus x 2

Intro riff x 2

Part Three x 1

Part Two x 4

Chorus x 2

Intro riff x 8

 

That's how I think it goes but nobody made me God. E-mail questions to me at Kickdoc@aol.com

 

 

Return to my Green Day bass tabs page

The Tablature is Copyright its respective owners.

Sign Up For My Newsletter
Subscribe | Unsubscribe

Site Map | Disclaimer | Privacy Policy | Media Kit | Submissions/Corrections

Website © 2000-2014 mattsmusicpage.com. All rights reserved.

Legal & DMCA: Matt's Music Page has been providing lyrics and tabs in a legal way, paying royalties each year to a few organizations. Then, all lyrics and tabs were removed from the site. Now, there's a new owner to the site, which purchased it August 26, 2014, and he is in negotiation to obtain licensing from BMI at the moment. If you have a specific DMCA request -- please do not hesitate to contact me via the contact button on top. I will do my very best to keep this site fully legal.

Get our toolbar!