Your One-Stop Source For
Music Lyrics
Bass and Guitar Tabs
and More...
Music Lyrics Bass and Guitar Tabs

 

The Tabs Are Below

Learn To Read Tab
Chords Handbook
Corrections & Additions
Get Official Tab
Green Day tabs @ 911Tabs

I saw Mike Dirnt play it exactly like this

 

Bass comes in at 00:13

Verse

|------------------------------------------------------------|

|------------------------------------------------------------|

|--88--44------666-------------------------------------------| X 3

|----------44------------------------------------------------|

 

|------------------------------------------------------------|

|------------------------------------------------------------|

|--88--44-------------------------------------------------| X 1

|----------44---888---------------------------------------------|

 

|------------------------------------------------------------|

|------------------------------------------------------------|

|--88--44------666-------------------------------------| X 1

|----------44-------------88-88-88-88-888-------------------------------|

 

|----------------------------------------------------------|

|----------------------------------------------------------|

|--88--44------666--88--44---------------88--44------666-------|

|----------44---------------44---888------------44------------|

X 1

|----------------------------------------------------------|

|----------------------------------------------------------|

|------------------------------------------------------|

|--------88-88-88-888-----------------------------------------------|

 

Chorus

|------------------------------------------------------------|

|------------------------------------------------------------|

|----------44-444-----------66-6666----------44-444----------|

|--11-111----------44-4444-----------11-111----------44-444--|

X 1

|------------------------------------------------------------|

|------------------------------------------------------------|

|----------------------------------------------------|

|---88-88-88-888------------------------------------------------------|

 

 

Bridge

|------------------------------------------------------------|

|---------------------------------------------------------|

|---------------4--6-3------------6---8--------------| X 2

|--1-1-4-4---6-----------1-1-4-4---8-------------------------|

 

 

|------------------------------------------------------------|

|------------------------------------------------------------|

|--44-444---------------------88--66--44-444-------------------|

|----------44-444---88888-----------------------44-444--8888-88-8888888888888---------|

X 1

Bass Solo

|------------------------------------------------------------|

|---------------------------------------------------------|

|---------------4--6-3------------6---8--------------| X 6

|--1-1-4-4---6-----------1-1-4-4---8-------------------------|

 

|------------------------------------------------------------|

|------------------------------------------------------------|

|--------------------------------------------------------| X 1

|---------88888888888888888888888------------|

 

 

Ending

|------------------------------------------------------------|

|------------------------------------------------------------|

|--88--44------666-------------------------------------------| X 3

|----------44------------------------------------------------|

 

|------------------------------------------------------------|

|-----------------------------------------------------------|

|--88--44--6----8---------------------------------------| X 1

|------------8------1~----------------------------------------|

 

 

Return to my Green Day bass tabs page

The Tablature is Copyright its respective owners.

Sign Up For My Newsletter
Subscribe | Unsubscribe

Site Map | Disclaimer | Privacy Policy | Media Kit | Submissions/Corrections

Website © 2000-2014 mattsmusicpage.com. All rights reserved.

Legal & DMCA: Matt's Music Page has been providing lyrics and tabs in a legal way, paying royalties each year to a few organizations. Then, all lyrics and tabs were removed from the site. Now, there's a new owner to the site, which purchased it August 26, 2014, and he is in negotiation to obtain licensing from BMI at the moment. If you have a specific DMCA request -- please do not hesitate to contact me via the contact button on top. I will do my very best to keep this site fully legal.

Get our toolbar!