Your One-Stop Source For
Music Lyrics
Bass and Guitar Tabs
and More...
Music Lyrics Bass and Guitar Tabs

 

The Tabs Are Below

Learn To Read Tab
Chords Handbook
Corrections & Additions
Get Official Tab
Green Day tabs @ 911Tabs

 

Song: Basket Case

Artist: Green Day

Album: Dookie

 

Intro

Gb--------------------------------------9h10h11p10p9--

Db--------------------------------2-------------------

Ab--7-5-5-4-4-4-4-0-0-0-0-2-2-2-2---------------------

Eb----------------------------------------------------

 

Verse

Gb-----------------------------------------------------------------------

Db------------------------6----------------------------------------------

Ab----------2-2-2-2-4-4-4---4-----------------7-7-7-7---------7h9-7h9-7--

Eb--0-0-0-0-------------------4-4-4-4-5-5-5-5---------7-7-7-7------------

 

Gb----------------------------------------------------------------------

Db------------------------6--------------------------------------7p6----

Ab----------2-2-2-2-4-4-4---4------------------7-7-7-7---------9-----9--

Eb--0-0-0-0-------------------4-4-4-4-5-5-5-5---------7-7-7-7-----------

 

Chorus

 

Gb-----------------------------------------------------------------------------------

Db-----------------------------------7p6------------------------------------6h7-6h7--

Ab----------------------7-7-7-7-7--9-----7-0----------------------7-7-7-7-7----------

Eb--5-5-5-5-5-7-7-7-7-7-----------------------5-5-5-5-5-7-7-7-7-7--------------------

 

Gb---------------------------------------------------

Db---------------------------------------------------

Ab----------------------7-5-4-4-4-4-0-0-0-0-2-2-2-2--

Eb--5-5-5-5-5-7-7-7-7-7------------------------------

 

Bridge X3

Gb-------------------|--1h2------------------|------------------------------------

Db--2----------------|------2----------------|-----------------------------0h1h2--

Ab----2-2--4-4--2-2--|--------2-2--4-4--2-2--|--7-7-7-7-7-7-2-2-2-2-2-2--2--------

Eb-------------------|-----------------------|------------------------------------

 

Outro X3

Gb-------------------------------------|-----------------------------------------

Db--2-2-2-2---------------2-2----------|--2-2-2-2----------------2---------------

Ab----------4-4-4-4-4/7-0-----2-2-2-2--|----------4-4-4-4-4/7-0-----2---0-----2--

Eb-------------------------------------|-----------------------------------0-----

 

 

Intro X1

Verse X1

Chorus X1

Bridge X1

Verse X1

Chorus X1

Outro X1

 

This tab was created by Christian Mangs. Email me at:

Shadow145@hotmail.com

 

Return to my Green Day bass tabs page

The Tablature is Copyright its respective owners.

Sign Up For My Newsletter
Subscribe | Unsubscribe

Site Map | Disclaimer | Privacy Policy | Media Kit | Submissions/Corrections

Website © 2000-2014 mattsmusicpage.com. All rights reserved.

Legal & DMCA: Matt's Music Page has been providing lyrics and tabs in a legal way, paying royalties each year to a few organizations. Then, all lyrics and tabs were removed from the site. Now, there's a new owner to the site, which purchased it August 26, 2014, and he is in negotiation to obtain licensing from BMI at the moment. If you have a specific DMCA request -- please do not hesitate to contact me via the contact button on top. I will do my very best to keep this site fully legal.

Get our toolbar!