Your One-Stop Source For
Music Lyrics
Bass and Guitar Tabs
and More...
Music Lyrics Bass and Guitar Tabs

 

The Tabs Are Below

Learn To Read Tab
Chords Handbook
Corrections & Additions
Get Official Tab
Green Day tabs @ 911Tabs

 

Tablature Workshop

By Fenderguy1

Green Day Edition

 

Transcribed songs:

 

Basket Case

When I Come Around

 

Basket Case and When I Come Around are two songs composed and played

by Green Day. These songs are off their second album Dookie.

 

"Basket Case"

 

Verse

 

Eb Bb C G

 

--------------------------------------------------------------------

--------------------------------------------------------------------

-----8-8-8-8-8-8-8-8-----------------------5-5-5-5-5-5-5-5----------

-----8-8-8-8-8-8-8-8----8-8-8-8-8-8-8-8----5-5-5-5-5-5-5-5----5-5-5-

-----6-6-6-6-6-6-6-6----8-8-8-8-8-8-8-8----3-3-3-3-3-3-3-3----5-5-5-

------------------------6-6-6-6-6-6-6-6-----------------------3-3-3-

 

G Ab Eb Bb

 

--------------------------------------------------------------------

--------------------------------------------------------------------

--------------------------------8-8-8-8-8-8-8-8---------------------

5-5-5-5-5----6-6-6-6-6-6-6-6----8-8-8-8-8-8-8-8----8-8-8-8-8-8-8-8-8

5-5-5-5-5----6-6-6-6-6-6-6-6----6-6-6-6-6-6-6-6----8-8-8-8-8-8-8-8-8

3-3-3-3-3----4-4-4-4-4-4-4-4-----------------------6-6-6-6-6-6-6-6-6

 

Bb

 

------------------|

------------------|

------------------| (Repeat verse twice

8-8-8-8-8-8-8-----| before going on to

8-8-8-8-8-8-8-----| Chorus)

6-6-6-6-6-6-6-----|

 

 

Lyrics for Verse:

 

1. Do you have the time

2. I went to a shrink

 

To listen to me whine

To analyze my dreams

 

About nothing and everything all at once

She says. It's lack of sex that's bringing me down

 

I am one of those

I went to a whore

 

Melodramatic fools

He said my life's a bore

 

Neurotic to the bone no doubt about it

And quit my whining cause it's bringing her down

 

Lyrics for Chorus:

 

Sometimes I give myself the creeps

Sometimes my mind plays tricks on me

It all keeps adding up

I think I'm cracking up

Am I just paranoid?

I'm just stoned

 

Chorus:

 

Ab Bb Eb

 

------------------------------------------------------------------

------------------------------------------------------------------

------------------------------------------8-8-8-8-8-8-8-8-8-8-8-8-

----6-6-6-6-6-6-6-6----8-8-8-8-8-8-8-8----8-8-8-8-8-8-8-8-8-8-8-8-

----6-6-6-6-6-6-6-6----8-8-8-8-8-8-8-8----6-6-6-6-6-6-6-6-6-6-6-6-

----4-4-4-4-4-4-4-4----6-6-6-6-6-6-6-6----------------------------

 

Eb Ab Bb Eb

 

------------------------------------------------------------------

------------------------------------------------------------------

8-8-8-8------------------------------------------8-8-8-8-8-8-8-8-8

8-8-8-8----6-6-6-6-6-6-6-6----8-8-8-8-8-8-8-8----8-8-8-8-8-8-8-8-8

6-6-6-6----6-6-6-6-6-6-6-6----8-8-8-8-8-8-8-8----6-6-6-6-6-6-6-6-6

-----------4-4-4-4-4-4-4-4----6-6-6-6-6-6-6-6---------------------

 

Eb Ab Bb Eb Db

 

------------------------------------------------------------------

------------------------------------------------------------------

-8-8-8-8-8-8-8------------------------------------------8-8-8-8--6

-8-8-8-8-8-8-8----6-6-6-6-6-6-6-6----8-8-8-8-8-8-8-8----8-8-8-8--6

-6-6-6-6-6-6-6----6-6-6-6-6-6-6-6----8-8-8-8-8-8-8-8----6-6-6-6--4

------------------4-4-4-4-4-4-4-4----6-6-6-6-6-6-6-6--------------

 

Db C Ab Bb Eb

 

------------------------------------------------------------------

------------------------------------------------------------------

-6-6--5-5-5-5-5-5-5-5------------------------------------------8-8

-6-6--5-5-5-5-5-5-5-5----6-6-6-6-6-6-6-6----8-8-8-8-8-8-8-8----8-8

-4-4--3-3-3-3-3-3-3-3----6-6-6-6-6-6-6-6----8-8-8-8-8-8-8-8----6-6

-------------------------4-4-4-4-4-4-4-4----6-6-6-6-6-6-6-6-------

 

Eb Bb C Bb Eb Bb C Bb

 

---------------------------------------------------------|

---------------------------------------------------------|

-8---------5-5-5-----------8-8-8-------------------------|

-8--8-8-8--5-5-5--8-8-8----8-8-8--8-8-8--5-5-5--8-8-8----|

-6--8-8-8--3-3-3--8-8-8----6-6-6--8-8-8--5-5-5--8-8-8----|

----6-6-6---------6-6-6-----------6-6-6--3-3-3--6-6-6----|

 

 

"When I Come Around"

 

Verse:

 

Gb Db Eb Cb

 

--------------------------------------|

---------------------------7-7--------|

---------3--3-3----6-6-6---8-8---8----| (Repeat verse eight

---------4--4-4----6-6-6---8-8---9----| times before going

-----4-4-4--4-4----4-4-4---6-6---9----| on to the chorus)

-----2-2-2-----------------------7----|

 

 

Lyrics for Verse:

 

1. I heard you cry aloud

2. I heard it all before

 

All the way across town

So don't knock down my down

 

You've been searching for that someone

I'm a loser and a user

 

And it's me out on the prowl

I don't need no accuser

 

As you sit around feeling sorry for yourself

To slag me down because I know I'm right

 

Don't get lonely now

So go do what you like

 

Dry your whining eyes

Make sure you do it wise

 

I'm just roaming for the moment

You may find out that your self doubt means

 

Sleazin' my back yard so don't get

nothing was ever there

 

So uptight you been thinking about ditching me

You can't go forcing something if it's just not right

 

Lyrics for Chorus:

 

No time to search the world around

Cause you know where I'll be found

When I come around

 

 

Chorus:

 

------------------------------------------------------------|

------------------------------------------------------------|

------------------------------------------------------------|

-----6-6-6-6-6-6-6-6---9-9-9-9-9-9-9-9---6-6-6-6-6-6-6-6---9|

-----6-6-6-6-6-6-6-6---9-9-9-9-9-9-9-9---6-6-6-6-6-6-6-6---9|

-----4-4-4-4-4-4-4-4---7-7-7-7-7-7-7-7---4-4-4-4-4-4-4-4---7|

 

 

That's it for the Green Day edition of Tablature Workshop. Feel

free to E-mail me for comments or questions. Remember my screen

name is Fenderguy1. I'm transcribing more songs so look foward to

Nirvana edition of Tablature Workshop.

 

Return to my Green Day tabs page

The Tablature is Copyright its respective owners.

Sign Up For My Newsletter
Subscribe | Unsubscribe

Site Map | Disclaimer | Privacy Policy | Media Kit | Submissions/Corrections

Website © 2000-2014 mattsmusicpage.com. All rights reserved.

Legal & DMCA: Matt's Music Page has been providing lyrics and tabs in a legal way, paying royalties each year to a few organizations. Then, all lyrics and tabs were removed from the site. Now, there's a new owner to the site, which purchased it August 26, 2014, and he is in negotiation to obtain licensing from BMI at the moment. If you have a specific DMCA request -- please do not hesitate to contact me via the contact button on top. I will do my very best to keep this site fully legal.

Get our toolbar!

 

VINTAGE SORRENTO MUSIC JEWELRY BOX
$45.0
VINTAGE SORRENTO MUSIC JEWELRY BOX picture


VINTAGE LACQUERED MUSIC BOX JAPAN
$25.99
VINTAGE LACQUERED MUSIC BOX JAPAN picture


Vintage Kehlsteinhaus Bavaria Germany Colorscope Cow Bell View Master Music Box
$8.99
Vintage Kehlsteinhaus Bavaria Germany Colorscope Cow Bell View Master Music Box picture


VINTAGE SCHMIDT Signed Collectible Musical Turning Clown
$9.99
VINTAGE  SCHMIDT Signed Collectible Musical Turning Clown picture


Vintage - Linen - Postcard - Stage - Radio City Music Hall - New York City
$3.75
Vintage - Linen - Postcard - Stage - Radio City Music Hall - New York City   picture