Your One-Stop Source For
Music Lyrics
Bass and Guitar Tabs
and More...
Music Lyrics Bass and Guitar Tabs

 

The Tabs Are Below

Learn To Read Tab
Chords Handbook
Corrections & Additions
Get Official Tab
Green Day tabs @ 911Tabs

 

Song: Armatage Shanks

Artist: Green Day

Album: Insomniac

 

Intro

Gb-----------------------------------------

Db-----------------------------------------

Ab--7-7-7-7-7-7-7-7-7-7-7-7-7-7-7-7-5-4-0--

Eb-----------------------------------------

 

Verse X2

Gb-------------------------------|------------------------------------------------

Db-------------------------------|------------------------------------------------

Ab--0-0-0-0-0-0-4h5-5-5-5-5-5-5--|--------------5-5-5-5-5-5--------------7p5------

Eb-------------------------------|--2-2-2-2-2-2-------------0-0-0-0-0-0------7p5--

 

Chorus

Gb---------------------------------------------------

Db---------------------------------------------------

Ab--5-5-5-5-5-5-0-0-0-0-0-0-7-7-7-7-7-7-0-0-0-0-0-0--

Eb---------------------------------------------------

 

Gb-----------------------------------------------

Db-----------------------------------------------

Ab--5-5-5-5-5-5-0-0-0-0-0-0-0-7-7-7-7-7-7-5-4-0--

Eb-----------------------------------------------

 

Bridge X2

Gb-----------------------------|---------------------------------

Db-----------------------------|--------------7-5-7--------------

Ab--0-0-0-0-0-0-5--------------|--5-5-5-5-5-5-------7-7-7-7-7-7--

Eb----------------2-2-2-2-2-2--|---------------------------------

X2

Gb-----------------------------|-----------------------

Db-----------------------------|--------------7-5-7----

Ab--0-0-0-0-0-0-5--------------|--5-5-5-5-5-5-------7--

Eb----------------2-2-2-2-2-2--|-----------------------

 

 

Last Chorus

Gb---------------------------------------------------

Db---------------------------------------------------

Ab--5-5-5-5-5-5-0-0-0-0-0-0-7-7-7-7-7-7-0-0-0-0-0-0--

Eb---------------------------------------------------

 

Gb-----------------------------------------------------

Db-----------------------------------------------------

Ab--5-5-5-5-5-5-0-0-0-0-0-0-0-7-7-7-7-7-7-7-7-7-7-7-7--

Eb-----------------------------------------------------

 

Intro X1

Verse X2

Chorus X1

Verse X2

Chorus X1

Bridge X1

Chorus X1

Last Chorus X1

 

This tab was created by Christian Mangs. Email me at:

Shadow145@hotmail.com

 

Return to my Green Day bass tabs page

The Tablature is Copyright its respective owners.

Sign Up For My Newsletter
Subscribe | Unsubscribe

Site Map | Disclaimer | Privacy Policy | Media Kit | Submissions/Corrections

Website © 2000-2014 mattsmusicpage.com. All rights reserved.

Legal & DMCA: Matt's Music Page has been providing lyrics and tabs in a legal way, paying royalties each year to a few organizations. Then, all lyrics and tabs were removed from the site. Now, there's a new owner to the site, which purchased it August 26, 2014, and he is in negotiation to obtain licensing from BMI at the moment. If you have a specific DMCA request -- please do not hesitate to contact me via the contact button on top. I will do my very best to keep this site fully legal.

Get our toolbar!

 

VINTAGE SORRENTO MUSIC JEWELRY BOX
$45.0
VINTAGE SORRENTO MUSIC JEWELRY BOX picture


VINTAGE LACQUERED MUSIC BOX JAPAN
$25.99
VINTAGE LACQUERED MUSIC BOX JAPAN picture


Vintage Kehlsteinhaus Bavaria Germany Colorscope Cow Bell View Master Music Box
$8.99
Vintage Kehlsteinhaus Bavaria Germany Colorscope Cow Bell View Master Music Box picture


VINTAGE SCHMIDT Signed Collectible Musical Turning Clown
$9.99
VINTAGE  SCHMIDT Signed Collectible Musical Turning Clown picture


Vintage - Linen - Postcard - Stage - Radio City Music Hall - New York City
$3.75
Vintage - Linen - Postcard - Stage - Radio City Music Hall - New York City   picture