Your One-Stop Source For
Music Lyrics
Bass and Guitar Tabs
and More...
Music Lyrics Bass and Guitar Tabs

 

The Tabs Are Below

Learn To Read Tab
Chords Handbook
Corrections & Additions
Get Official Tab
Green Day tabs @ 911Tabs

 

Green Day

Armatage Shanks (for guitar)

FROM: Insomniac, Track 01

BY: MICHAEL R. MYERS/MMYERS6936@AOL.COM

NOTE: Tune down all your strings 1/2 step to get the right pitch

**USE WINDOWS NOTEPAD TO HAVE THE TAB STRINGS LINE UP CORRECTLY**

 

INTRO: Play many times, then go to VERSE

E5(7th pos.)

|--x---------|

|--7---------|

|--9---------|

|--9---------|

|------------|

|------------|

 

VERSE: Play two times and then go to CHORUS

A5 D5 A5 D5 F#5 D5 E5

|-5------X-----5---X---2------X----0--|

|-7------5-----7---5---4------5----2--|

|-7------7-----7---7---4------7----2--|

|--------7---------7----------7-------|

|-------------------------------------|

|-------------------------------------|

CHORUS: Play the first time through, then play the second part below.

D5 A5 E5 A5

|-X-------5--------0--------5--|

|-5-------7--------2--------7--|

|-7-------7--------2--------7--|

|-7----------------------------|

|------------------------------|

|------------------------------|

CHORUS: Second time through (second ending)

D5 A5 E5

|-X-------5--------X----|

|-5-------7--------7----|

|-7-------7--------9----|

|-7----------------9----|

 

BRIDGE: Play two times through, then go to VERSE

A5 F#5 A5 F#5 D5 E5

|-5------2--------5------2-------X------X---|

|-7------4--------7------4-------5------7---|

|-7------4--------7------4-------7------9---|

|--------------------------------7------9---|

|-------------------------------------------|

|-------------------------------------------|

 

END: Exactly the same as the INTRO E5 chord at the 7th position.

 

Look for more transcriptions from me for bands like: Green Day,

Sex Pistols, Soundgarden and many more! e-mail me with any

thoughts, help or suggestions. i'm always open to

others' opinions.

 

Return to my Green Day tabs page

The Tablature is Copyright its respective owners.

Sign Up For My Newsletter
Subscribe | Unsubscribe

Site Map | Disclaimer | Privacy Policy | Media Kit | Submissions/Corrections

Website © 2000-2014 mattsmusicpage.com. All rights reserved.

Legal & DMCA: Matt's Music Page has been providing lyrics and tabs in a legal way, paying royalties each year to a few organizations. Then, all lyrics and tabs were removed from the site. Now, there's a new owner to the site, which purchased it August 26, 2014, and he is in negotiation to obtain licensing from BMI at the moment. If you have a specific DMCA request -- please do not hesitate to contact me via the contact button on top. I will do my very best to keep this site fully legal.

Get our toolbar!

 

Hard Rock Pin Las Vegas 4th of july red white and blue guitar
$5.0
Hard Rock Pin Las Vegas 4th of july red white and blue guitar picture


Hard Rock Pin Hollywood Fl Bell Girl with dice luggage and guitar
$5.0
Hard Rock Pin Hollywood Fl Bell Girl with dice luggage and guitar picture


Hard Rock Pin Las Vegas King of Clubs Guitar rare only 3 lines of info on back
$5.0
Hard Rock Pin Las Vegas King of Clubs Guitar rare only 3 lines of info on back picture


Hard Rock Pin Edmonton guitar pin
$5.0
Hard Rock Pin Edmonton guitar pin picture


Lladro Guitar Boy #4614 - Beautiful Piece of Lladro
$109.0
Lladro Guitar Boy #4614 - Beautiful Piece of Lladro picture