Your One-Stop Source For
Music Lyrics
Bass and Guitar Tabs
and More...
Music Lyrics Bass and Guitar Tabs

 

The Tabs Are Below

Learn To Read Tab
Chords Handbook
Corrections & Additions
Get Official Tab
Green Day tabs @ 911Tabs

 

Green Day

86 (for guitar)

FROM: Insomniac, Track 07

BY: MICHAEL R. MYERS/MMYERS 6936@AOL.COM

NOTE: Tune down all your strings 1/2 step to get the right pitch.

**USE WINDOWS NOTEPAD TO HAVE THE TAB STRINGS LINE UP CORRECTLY**

 

 

INTRO: Play two times, then go to VERSE

E5(7th pos.) G#5 A5

|--x---------------4-------------5-----|

|--7---------------6-------------7-----|

|--9---------------6-------------7-----|

|--9-----------------------------------|

|--------------------------------------|

|--------------------------------------|

 

VERSE: Play two times and then go to CHORUS

E5 B5 A5 E5

|-0---------7--------5--------0--------|Note: Palm mute the E5 and

|-2---------9--------7--------2--------|play a B5 chord and an A5

|-2---------9--------7--------2--------|before starting the

|--------------------------------------|second time through.

|--------------------------------------|

|--------------------------------------|

 

BRIDGE: Play once and then go to CHORUS

B5 A5 B5 A5

|-7---------5--------7--------5--------|

|-9---------7--------9--------7--------|

|-9---------7--------9--------7--------|

|--------------------------------------|

|--------------------------------------|

|--------------------------------------|

 

CHORUS: Play four times and go to VERSE

E5 G#5 A5

|-X--------4--------5------------------|

|-7--------6--------7------------------|

|-9--------6--------7------------------|

|-9------------------------------------|

|--------------------------------------|

|--------------------------------------|

 

FILL: Play the CHORUS to the BRIDGE to the END

 

END: Exactly the same as the INTRO.

 

Look for more transcriptions from me for bands like: Green Day,

Sex Pistols, Soundgarden and many more! e-mail me with any

thoughts, help or suggestions. i'm always open to

others' opinions.

 

Return to my Green Day tabs page

The Tablature is Copyright its respective owners.

Sign Up For My Newsletter
Subscribe | Unsubscribe

Site Map | Disclaimer | Privacy Policy | Media Kit | Submissions/Corrections

Website © 2000-2014 mattsmusicpage.com. All rights reserved.

Legal & DMCA: Matt's Music Page has been providing lyrics and tabs in a legal way, paying royalties each year to a few organizations. Then, all lyrics and tabs were removed from the site. Now, there's a new owner to the site, which purchased it August 26, 2014, and he is in negotiation to obtain licensing from BMI at the moment. If you have a specific DMCA request -- please do not hesitate to contact me via the contact button on top. I will do my very best to keep this site fully legal.

Get our toolbar!