Your One-Stop Source For
Music Lyrics
Bass and Guitar Tabs
and More...
Music Lyrics Bass and Guitar Tabs

 

The Green Day Guitar Tabs Are Below

Learn To Read Tab
Chords Handbook
Corrections & Additions
Get Official Tab
Green Day tabs @ 911Tabs

----------------------------------------------------------------------------

21st Century Breakdown by Green Day tabbed by Bob M.

----------------------------------------------------------------------------

 

 

Tabbed by ear. This took a good few hours to figure out and tab.

Open to suggestions and PLEASE RATE!!

 

Tuning: Guitar 1 - EADGBE

Guitar 2 - EADGBE

Piano - EADGBE

 

 

 

Intro piano arranged for guitar - 00:01

 

 

E|---------------------------------|----------------------------------||

B|---------------------------------|----------------------------------||

G|-------1-----1-----1-3-1---------|--------1-----1-----1-3-1---------||

D|----3------3---3-----------4-3---|-----3------3---3-----------4-3---||

A|--4------------------------------|--4-------------------------------||

E|---------------------------------|----------------------------------||

 

 

E|---------------------------------|----------------------------------||

B|---------------------------------|----------------------------------||

G|-------1-----1-----1-3-1---------|--------1-----1-----1-3-1---------||

D|----3------3---3-----------4-3---|-----3------3---3-----------4-3---||

A|--4------------------------------|--4-------------------------------||

E|-------------------4---2---------|--------------------4---2---------||

 

 

E|---------------------------------|----------------------------------|

B|---------------------------------|----------------------------------|

G|-------1-----1-----1-3-1---------|--------1-----1-----1-3-1---------|

D|----3------3---3-----------4-3---|-----3------3---3-----------4-3---|

A|--4------------------------------|--4-------------------------------|

E|-------------------4---2---------|--------------------4---2---------|

 

 

 

00:41

 

Wooooo Wooo Wooo Wooo Wooo...!

 

E|---------------------------------|

B|----9~------11p9/7h9~------------|

G|---------------------------------|

D|---------------------------------|

A|---------------------------------|

E|---------------------------------|

 

 

 

00:41

 

Guitar 1:

 

E|----------------------|---4-4-4-2--2-2-------|

B|---6--6-6-6-6-6-------|---4-4-4-2--2-2-------|

G|---6--6-6-6-6-6-------|---5-5-5-3--3-3-------|

D|---6--6-6-6-6-6-------|---6-6-6-4--4-4-------|

A|---4--4-4-4-4-4-------|---6-6-6-4--4-4-------|

E|----------------------|---4-4-4-2--2-2-------|

 

 

Guitar 1:

E|----------------------|---4-4-4-2--2-2-------|

B|---6--6-6-6-6-6-------|---4-4-4-2--2-2-------|

G|---6--6-6-6-6-6-------|---5-5-5-3--3-3-------|

D|---6--6-6-6-6-6-------|---6-6-6-4--4-4-------|

A|---4--4-4-4-4-4-------|---6-6-6-4--4-4-------|

E|----------------------|---4-4-4-2--2-2-------|

| Guitar 2: |

E|----------------------|----------------------|

B|----------7p6---------|----------------------|

G|--------------4-------|----------------------|

D|----------------------|----------------------|

A|----------------------|----------------------|

E|----------------------|----------------------|

 

 

 

"Born into Nixon I was raised in hell..." - 00:50

 

Guitar 1:

 

E|----------------------|---4-4-4-2--2-2-------|

B|---6--6-6-6-6-6-------|---4-4-4-2--2-2-------|

G|---6--6-6-6-6-6-------|---5-5-5-3--3-3-------|

D|---6--6-6-6-6-6-------|---6-6-6-4--4-4-------|

A|---4--4-4-4-4-4-------|---6-6-6-4--4-4-------|

E|----------------------|---4-4-4-2--2-2-------|

 

 

Guitar 1:

E|----------------------|---4-4-4-2--2-2-------|

B|---6--6-6-6-6-6-------|---4-4-4-2--2-2-------|

G|---6--6-6-6-6-6-------|---5-5-5-3--3-3-------|

D|---6--6-6-6-6-6-------|---6-6-6-4--4-4-------|

A|---4--4-4-4-4-4-------|---6-6-6-4--4-4-------|

E|----------------------|---4-4-4-2--2-2-------|

| Guitar 2: |

E|----------------------|----------------------|

B|----------7p6---------|----------------------|

G|--------------4-------|----------------------|

D|----------------------|----------------------|

A|----------------------|----------------------|

E|----------------------|----------------------|

 

 

Guitar 1:

 

E|----------------------|---4-4-4-2--2-2-------|

B|---6--6-6-6-6-6-------|---4-4-4-2--2-2-------|

G|---6--6-6-6-6-6-------|---5-5-5-3--3-3-------|

D|---6--6-6-6-6-6-------|---6-6-6-4--4-4-------|

A|---4--4-4-4-4-4-------|---6-6-6-4--4-4-------|

E|----------------------|---4-4-4-2--2-2-------|

 

 

Guitar 1:

E|----------------------|---4-4-4-2--2-2-------|

B|---6--6-6-6-6-6-------|---4-4-4-2--2-2-------|

G|---6--6-6-6-6-6-------|---5-5-5-3--3-3-------|

D|---6--6-6-6-6-6-------|---6-6-6-4--4-4-------|

A|---4--4-4-4-4-4-------|---6-6-6-4--4-4-------|

E|----------------------|---4-4-4-2--2-2-------|

| Guitar 2: |

E|----------------------|----------------------|

B|----------7p6---------|----------------------|

G|--------------4-------|----------------------|

D|----------------------|----------------------|

A|----------------------|----------------------|

E|----------------------|----------------------|

 

 

 

Pre chorus - "My Generation is zero..." - 01:05

 

Guitar 1:

 

E|---1--1-1-1-1-1-------|---2--2-2-2-2-2-------|

B|---2--2-2-2-2-2-------|---2--2-2-2-2-2-------|

G|---3--3-3-3-3-3-------|---3--3-3-3-3-3-------|

D|---3--3-3-3-3-3-------|---4--4-4-4-4-4-------|

A|---1--1-1-1-1-1-------|---4--4-4-4-4-4-------|

E|----------------------|---2--2-2-2-2-2-------|

| Guitar 2: |

E|-----------1----------|----------------------|

B|---------2---2--------|----------------------|

G|-------3-------3------|--------3-3-3-4-3-----|

D|-----3-----------3----|--------4-4-4-4-4-----|

A|---1------------------|-----4----------------|

E|----------------------|---2------------------|

 

 

Guitar 1:

 

E|---1--1-1-1-1-1-------|---2--2--2--2-------|

B|---2--2-2-2-2-2-------|---2--2--2--2-------|

G|---3--3-3-3-3-3-------|---3--3--3--3-------|

D|---3--3-3-3-3-3-------|---4--4--4--4-------|

A|---1--1-1-1-1-1-------|---4--4--4--4-------|

E|----------------------|---2--2--2--2-------|

| Guitar 2: |

E|-----------1----------|--------------------|

B|---------2---2--------|--------------------|

G|-------3-------3------|--------------------|

D|-----3-----------3----|-------4------------|

A|---1------------------|-----4--------------|

E|----------------------|---2----------------|

 

 

Chorus - "21st Century Breakdown..." - 01:14

 

 

E|-----------4-4-4--------|---2--2-2-2-2-2-2---------||

B|--6--6-6---4-4-4--------|---2--2-2-2-2-2-2---------||

G|--6--6-6---5-5-5--------|---3--3-3-3-3-3-3---------||

D|--6--6-6---6-6-6--------|---4--4-4-4-4-4-4---------||

A|--4--4-4---6-6-6--------|---4--4-4-4-4-4-4---------||

E|-----------4-4-4--------|---2--2-2-2-2-2-2---------||

 

 

E|-----------4-4-4--------|---2--2-2-2-2-2-2---------||

B|--6--6-6---4-4-4--------|---2--2-2-2-2-2-2---------||

G|--6--6-6---5-5-5--------|---3--3-3-3-3-3-3---------||

D|--6--6-6---6-6-6--------|---4--4-4-4-4-4-4---------||

A|--4--4-4---6-6-6--------|---4--4-4-4-4-4-4---------||

E|-----------4-4-4--------|---2--2-2-2-2-2-2---------||

 

 

Guitar 1:

 

E|----------------------|---4-4-4-2--2-2-------|

B|---6--6-6-6-6-6-------|---4-4-4-2--2-2-------|

G|---6--6-6-6-6-6-------|---5-5-5-3--3-3-------|

D|---6--6-6-6-6-6-------|---6-6-6-4--4-4-------|

A|---4--4-4-4-4-4-------|---6-6-6-4--4-4-------|

E|----------------------|---4-4-4-2--2-2-------|

 

 

01:30

 

Wooooo Wooo Wooo Wooo Wooo...!

 

E|---------------------------------|

B|----9~------11p9/7h9~------------|

G|---------------------------------|

D|---------------------------------|

A|---------------------------------|

E|---------------------------------|

 

Guitar 1:

 

E|----------------------|---4-4-4-2--2-2-------|

B|---6--6-6-6-6-6-------|---4-4-4-2--2-2-------|

G|---6--6-6-6-6-6-------|---5-5-5-3--3-3-------|

D|---6--6-6-6-6-6-------|---6-6-6-4--4-4-------|

A|---4--4-4-4-4-4-------|---6-6-6-4--4-4-------|

E|----------------------|---4-4-4-2--2-2-------|

 

 

Guitar 1:

E|----------------------|---4-4-4-2--2-2-------|

B|---6--6-6-6-6-6-------|---4-4-4-2--2-2-------|

G|---6--6-6-6-6-6-------|---5-5-5-3--3-3-------|

D|---6--6-6-6-6-6-------|---6-6-6-4--4-4-------|

A|---4--4-4-4-4-4-------|---6-6-6-4--4-4-------|

E|----------------------|---4-4-4-2--2-2-------|

| Guitar 2: |

E|----------------------|----------------------|

B|----------7p6---------|----------------------|

G|--------------4-------|----------------------|

D|----------------------|----------------------|

A|----------------------|----------------------|

E|----------------------|----------------------|

 

 

 

"I was made of poison and blood..." - 00:50

 

Guitar 1:

 

E|----------------------|---4-4-4-2--2-2-------|

B|---6--6-6-6-6-6-------|---4-4-4-2--2-2-------|

G|---6--6-6-6-6-6-------|---5-5-5-3--3-3-------|

D|---6--6-6-6-6-6-------|---6-6-6-4--4-4-------|

A|---4--4-4-4-4-4-------|---6-6-6-4--4-4-------|

E|----------------------|---4-4-4-2--2-2-------|

 

 

Guitar 1:

E|----------------------|---4-4-4-2--2-2-------|

B|---6--6-6-6-6-6-------|---4-4-4-2--2-2-------|

G|---6--6-6-6-6-6-------|---5-5-5-3--3-3-------|

D|---6--6-6-6-6-6-------|---6-6-6-4--4-4-------|

A|---4--4-4-4-4-4-------|---6-6-6-4--4-4-------|

E|----------------------|---4-4-4-2--2-2-------|

| Guitar 2: |

E|----------------------|----------------------|

B|----------7p6---------|----------------------|

G|--------------4-------|----------------------|

D|----------------------|----------------------|

A|----------------------|----------------------|

E|----------------------|----------------------|

 

 

Guitar 1:

 

E|----------------------|---4-4-4-2--2-2-------|

B|---6--6-6-6-6-6-------|---4-4-4-2--2-2-------|

G|---6--6-6-6-6-6-------|---5-5-5-3--3-3-------|

D|---6--6-6-6-6-6-------|---6-6-6-4--4-4-------|

A|---4--4-4-4-4-4-------|---6-6-6-4--4-4-------|

E|----------------------|---4-4-4-2--2-2-------|

 

 

Guitar 1:

E|----------------------|---4-4-4-2--2-2-------|

B|---6--6-6-6-6-6-------|---4-4-4-2--2-2-------|

G|---6--6-6-6-6-6-------|---5-5-5-3--3-3-------|

D|---6--6-6-6-6-6-------|---6-6-6-4--4-4-------|

A|---4--4-4-4-4-4-------|---6-6-6-4--4-4-------|

E|----------------------|---4-4-4-2--2-2-------|

| Guitar 2: |

E|----------------------|----------------------|

B|----------7p6---------|----------------------|

G|--------------4-------|----------------------|

D|----------------------|----------------------|

A|----------------------|----------------------|

E|----------------------|----------------------|

 

 

Pre chorus - "My Generation is zero..." - 01:54

 

Guitar 1:

 

E|---1--1-1-1-1-1-------|---2--2-2-2-2-2-------|

B|---2--2-2-2-2-2-------|---2--2-2-2-2-2-------|

G|---3--3-3-3-3-3-------|---3--3-3-3-3-3-------|

D|---3--3-3-3-3-3-------|---4--4-4-4-4-4-------|

A|---1--1-1-1-1-1-------|---4--4-4-4-4-4-------|

E|----------------------|---2--2-2-2-2-2-------|

| Guitar 2: |

E|-----------1----------|----------------------|

B|---------2---2--------|----------------------|

G|-------3-------3------|--------3-3-3-4-3-----|

D|-----3-----------3----|--------4-4-4-4-4-----|

A|---1------------------|-----4----------------|

E|----------------------|---2------------------|

 

 

Guitar 1:

 

E|---1--1-1-1-1-1-------|---2--2--2--2-------|

B|---2--2-2-2-2-2-------|---2--2--2--2-------|

G|---3--3-3-3-3-3-------|---3--3--3--3-------|

D|---3--3-3-3-3-3-------|---4--4--4--4-------|

A|---1--1-1-1-1-1-------|---4--4--4--4-------|

E|----------------------|---2--2--2--2-------|

| Guitar 2: |

E|-----------1----------|--------------------|

B|---------2---2--------|--------------------|

G|-------3-------3------|--------------------|

D|-----3-----------3----|-------4------------|

A|---1------------------|-----4--------------|

E|----------------------|---2----------------|

 

 

Chorus - "21st Century Breakdown..." - 02:02

 

 

E|-----------4-4-4--------|---2--2-2-2-2-2-2---------||

B|--6--6-6---4-4-4--------|---2--2-2-2-2-2-2---------||

G|--6--6-6---5-5-5--------|---3--3-3-3-3-3-3---------||

D|--6--6-6---6-6-6--------|---4--4-4-4-4-4-4---------||

A|--4--4-4---6-6-6--------|---4--4-4-4-4-4-4---------||

E|-----------4-4-4--------|---2--2-2-2-2-2-2---------||

 

 

E|-----------4-4-4--------|---2--2-2-2-2-2-2---------||

B|--6--6-6---4-4-4--------|---2--2-2-2-2-2-2---------||

G|--6--6-6---5-5-5--------|---3--3-3-3-3-3-3---------||

D|--6--6-6---6-6-6--------|---4--4-4-4-4-4-4---------||

A|--4--4-4---6-6-6--------|---4--4-4-4-4-4-4---------||

E|-----------4-4-4--------|---2--2-2-2-2-2-2---------||

 

 

E|-----------4-4-4--------|---2--2-2-2-2-2-2--4~-------|

B|--6--6-6---4-4-4--------|---2--2-2-2-2-2-2--4~-------|

G|--6--6-6---5-5-5--------|---3--3-3-3-3-3-3--5~-------|

D|--6--6-6---6-6-6--------|---4--4-4-4-4-4-4--6~-------|

A|--4--4-4---6-6-6--------|---4--4-4-4-4-4-4--6~-------|

E|-----------4-4-4--------|---2--2-2-2-2-2-2--4~-------|

 

 

E|--------4~--------------------|

B|--------4~--------------------|

G|--------5~--------------------|

D|--------6~--------------------|

A|--------6~--------------------|

E|--------4~--------------------|

 

02:30

 

Guitar 1

 

E|--------4~-------------------------|----------------------------------|

B|--------4~-------------------------|----------------------------------|

G|--------5~-------------------------|----------------------------------|

D|--------6~-------------------------|----------------------------------|

A|--------6~-------------------------|----------------------------------|

E|--------4~-------------------------|----------------------------------|

| Guitar 2: |

E|-----------------------------------|----------------------------------|

B|-----------------1-4--4-4--1-4--4--|--4---6-4-2-1---------------------|

G|--------1--1-1-1-------------------|----------------------------------|

D|-----------------------------------|----------------------------------|

A|-----------------------------------|----------------------------------|

E|-----------------------------------|----------------------------------|

 

 

E|-----------------------------------|----------------------------------|

B|-----------------1-4--4-4--1-4--4--|--4---6-4-2-1---------------------|

G|--------1--1-1-1-------------------|----------------------------------|

D|-----------------------------------|----------------------------------|

A|-----------------------------------|----------------------------------|

E|-----------------------------------|----------------------------------|

 

 

 

Guitar 1:

 

E|--------4~-------------------------|----------------------------------|

B|--------4~-------------------------|----------------------------------|

G|--------5~-------------------------|----------------------------------|

D|--------6~-------------------------|----------------------------------|

A|--------6~-------------------------|----------------------------------|

E|--------4~-------------------------|----------------------------------|

| Guitar 2: |

E|-----------------------------------|----------------------------------|

B|-----------------1-4--4-4--1-4--4--|--4---6-4-2-1---------------------|

G|--------1--1-1-1-------------------|----------------------------------|

D|-----------------------------------|----------------------------------|

A|-----------------------------------|----------------------------------|

E|-----------------------------------|----------------------------------|

 

 

E|-----------------------------------|----------------------------------|

B|-----------------1-4--4-4--1-4--4--|--4---6-4-2-1---------------------|

G|--------1--1-1-1-------------------|----------------------------------|

D|-----------------------------------|----------------------------------|

A|-----------------------------------|----------------------------------|

E|-----------------------------------|----------------------------------|

 

 

Guitar 1

 

E|--------4~-------------------------|--------------4-------------------|

B|--------4~-------------------------|------------6-4-------------------|

G|--------5~-------------------------|------------6-5-------------------|

D|--------6~-------------------------|------------6-6-------------------|

A|--------6~-------------------------|------------4-6-------------------|

E|--------4~-------------------------|--------------4-------------------|

| Guitar 2: |

E|-----------------------------------|----------------------------------|

B|-----------------1-4--4-4--1-4--4--|--4---6-4-2-1---------------------|

G|--------1--1-1-1-------------------|----------------------------------|

D|-----------------------------------|----------------------------------|

A|-----------------------------------|----------------------------------|

E|-----------------------------------|----------------------------------|

 

 

Guitar 1

 

E|-----------------------------------|--------------4-------------------|

B|-----------------------------------|------------6-4-------------------|

G|-----------------------------------|------------6-5-------------------|

D|-----------------------------------|------------6-6-------------------|

A|-----------------------------------|------------4-6-------------------|

E|-----------------------------------|--------------4-------------------|

| Guitar 2: |

E|-----------------------------------|----------------------------------|

B|-----------------1-4--4-4--1-4--4--|--4---6-4-2-1---------------------|

G|--------1--1-1-1-------------------|----------------------------------|

D|-----------------------------------|----------------------------------|

A|-----------------------------------|----------------------------------|

E|-----------------------------------|----------------------------------|

 

Guitar 1

 

E|-----------------------------------|--------------4-------------------|

B|-----------------------------------|------------6-4-------------------|

G|-----------------------------------|------------6-5-------------------|

D|-----------------------------------|------------6-6-------------------|

A|-----------------------------------|------------4-6-------------------|

E|-----------------------------------|--------------4-------------------|

| Guitar 2: |

E|-----------------------------------|----------------------------------|

B|-----------------1-4--4-4--1-4--4--|--4---6-4-2-1---------------------|

G|--------1--1-1-1-------------------|----------------------------------|

D|-----------------------------------|----------------------------------|

A|-----------------------------------|----------------------------------|

E|-----------------------------------|----------------------------------|

 

 

2:55

 

Guitar 1:

 

E|---------------------------------|----------------------------------||

B|--6--6--6--6--6--6--6------------|--6--6--6--6--6--6--6-------------||

G|--6--6--6--6--6--6--6------------|--6--6--6--6--6--6--6-------------||

D|--6--6--6--6--6--6--6------------|--6--6--6--6--6--6--6-------------||

A|--4--4--4--4--4--4--4------------|--4--4--4--4--4--4--4-------------||

E|---------------------------------|----------------------------------||

| Guitar 2:

E|---------------------------------|----------------------------------||

B|---9--9-9--6--9--9-9-------------|---6--9--9-9---11-9-7-6-----------||

G|---------------------------------|----------------------------------||

D|---------------------------------|----------------------------------||

A|---------------------------------|----------------------------------||

E|---------------------------------|----------------------------------||

 

Guitar 1:

 

E|---------------------------------|----------------------------------||

B|--6--6--6--6--6--6--6------------|--6--6--6--6--6--6--6-------------||

G|--6--6--6--6--6--6--6------------|--6--6--6--6--6--6--6-------------||

D|--6--6--6--6--6--6--6------------|--6--6--6--6--6--6--6-------------||

A|--4--4--4--4--4--4--4------------|--4--4--4--4--4--4--4-------------||

E|---------------------------------|----------------------------------||

| Guitar 2:

E|---------------------------------|----------------------------------||

B|---9--9-9--6--9--9-9-------------|---6--9--9-9---11-9-7-6-----------||

G|---------------------------------|----------------------------------||

D|---------------------------------|----------------------------------||

A|---------------------------------|----------------------------------||

E|---------------------------------|----------------------------------||

 

 

3:07

 

E|--------------------------|--2-2---4-4---------------|

B|--6-6-6-6-6-6-6-6---------|--2-2---4-4---6-6---------|

G|--6-6-6-6-6-6-6-6---------|--3-3---5-5---6-6---------|

D|--6-6-6-6-6-6-6-6---------|--4-4---6-6---6-6---------|

A|--4-4-4-4-4-4-4-4---------|--4-4---6-6---4-4---------|

E|--------------------------|--2-2---4-4---------------|

 

 

E|--------------------------|----------------------------|

B|--6-6-6-6-6-6-6-6---------|--x-x-x-x-x-x-x-x-x-x-x-x---|

G|--6-6-6-6-6-6-6-6---------|--x-x-x-x-x-x-x-x-x-x-x-x---|

D|--6-6-6-6-6-6-6-6---------|--x-x-x-x-x-x-x-x-x-x-x-x---|

A|--4-4-4-4-4-4-4-4---------|--x-x-x-x-x-x-x-x-x-x-x-x---|

E|--------------------------|----------------------------|

 

 

E|--------------------------|--2-2---4-4---------------|

B|--6-6-6-6-6-6-6-6---------|--2-2---4-4---6-6---------|

G|--6-6-6-6-6-6-6-6---------|--3-3---5-5---6-6---------|

D|--6-6-6-6-6-6-6-6---------|--4-4---6-6---6-6---------|

A|--4-4-4-4-4-4-4-4---------|--4-4---6-6---4-4---------|

E|--------------------------|--2-2---4-4---------------|

 

 

 

E|--------------------------|----------------------------|

B|--6-6-6-6-6-6-6-6---------|--x-x-x-x-x-x-x-x-x-x-x-x---|

G|--6-6-6-6-6-6-6-6---------|--x-x-x-x-x-x-x-x-x-x-x-x---|

D|--6-6-6-6-6-6-6-6---------|--x-x-x-x-x-x-x-x-x-x-x-x---|

A|--4-4-4-4-4-4-4-4---------|--x-x-x-x-x-x-x-x-x-x-x-x---|

E|--------------------------|----------------------------|

 

E|--------------------------|--2-2---4-4---------------|

B|--6-6-6-6-6-6-6-6---------|--2-2---4-4---6-6---------|

G|--6-6-6-6-6-6-6-6---------|--3-3---5-5---6-6---------|

D|--6-6-6-6-6-6-6-6---------|--4-4---6-6---6-6---------|

A|--4-4-4-4-4-4-4-4---------|--4-4---6-6---4-4---------|

E|--------------------------|--2-2---4-4---------------|

 

 

E|--------------------------|----------------------------|

B|--6-6-6-6-6-6-6-6---------|--x-x-x-x-x-x-x-x-x-x-x-x---|

G|--6-6-6-6-6-6-6-6---------|--x-x-x-x-x-x-x-x-x-x-x-x---|

D|--6-6-6-6-6-6-6-6---------|--x-x-x-x-x-x-x-x-x-x-x-x---|

A|--4-4-4-4-4-4-4-4---------|--x-x-x-x-x-x-x-x-x-x-x-x---|

E|--------------------------|----------------------------|

 

 

E|--------------------------|--2-2---4-4---------------|

B|--6-6-6-6-6-6-6-6---------|--2-2---4-4---6-6---------|

G|--6-6-6-6-6-6-6-6---------|--3-3---5-5---6-6---------|

D|--6-6-6-6-6-6-6-6---------|--4-4---6-6---6-6---------|

A|--4-4-4-4-4-4-4-4---------|--4-4---6-6---4-4---------|

E|--------------------------|--2-2---4-4---------------|

 

 

E|--------------------------|----------------------------|

B|--6-6-6-6-6-6-6-6---------|--x-x-x-x-x-x-x-x-x-x-x-x---|

G|--6-6-6-6-6-6-6-6---------|--x-x-x-x-x-x-x-x-x-x-x-x---|

D|--6-6-6-6-6-6-6-6---------|--x-x-x-x-x-x-x-x-x-x-x-x---|

A|--4-4-4-4-4-4-4-4---------|--x-x-x-x-x-x-x-x-x-x-x-x---|

E|--------------------------|----------------------------|

 

 

Guitar 1:

 

E|---------------------------------|----------------------------------||

B|--6--6--6--6--6--6--6------------|--6--6--6--6--6--6--6-------------||

G|--6--6--6--6--6--6--6------------|--6--6--6--6--6--6--6-------------||

D|--6--6--6--6--6--6--6------------|--6--6--6--6--6--6--6-------------||

A|--4--4--4--4--4--4--4------------|--4--4--4--4--4--4--4-------------||

E|---------------------------------|----------------------------------||

| Guitar 2: ||

E|---------------------------------|----------------------------------||

B|---9--9-9--6--9--9-9-------------|---6--9--9-9---11-9-7-6-----------||

G|---------------------------------|----------------------------------||

D|---------------------------------|----------------------------------||

A|---------------------------------|----------------------------------||

E|---------------------------------|----------------------------------||

 

 

Guitar 1:

 

E|---------------------------------|----------------------------------||

B|--6--6--6--6--6--6--6------------|--6--6--6--6--6--6--6-------------||

G|--6--6--6--6--6--6--6------------|--6--6--6--6--6--6--6-------------||

D|--6--6--6--6--6--6--6------------|--6--6--6--6--6--6--6-------------||

A|--4--4--4--4--4--4--4------------|--4--4--4--4--4--4--4-------------||

E|---------------------------------|----------------------------------||

| Guitar 2: ||

E|---------------------------------|----------------------------------||

B|---9--9-9--6--9--9-9-------------|---6--9--9-9---11-9-7-6-----------||

G|---------------------------------|----------------------------------||

D|---------------------------------|----------------------------------||

A|---------------------------------|----------------------------------||

E|---------------------------------|----------------------------------||

 

 

3:43

 

E|--------------------------|--2-2---4-4---------------|

B|--6-6-6-6-6-6-6-6---------|--2-2---4-4---6-6---------|

G|--6-6-6-6-6-6-6-6---------|--3-3---5-5---6-6---------|

D|--6-6-6-6-6-6-6-6---------|--4-4---6-6---6-6---------|

A|--4-4-4-4-4-4-4-4---------|--4-4---6-6---4-4---------|

E|--------------------------|--2-2---4-4---------------|

 

 

E|--------------------------|----------------------------|

B|--6-6-6-6-6-6-6-6---------|--x-x-x-x-x-x-x-x-x-x-x-x---|

G|--6-6-6-6-6-6-6-6---------|--x-x-x-x-x-x-x-x-x-x-x-x---|

D|--6-6-6-6-6-6-6-6---------|--x-x-x-x-x-x-x-x-x-x-x-x---|

A|--4-4-4-4-4-4-4-4---------|--x-x-x-x-x-x-x-x-x-x-x-x---|

E|--------------------------|----------------------------|

 

 

E|--------------------------|--2-2---4-4---------------|

B|--6-6-6-6-6-6-6-6---------|--2-2---4-4---6-6---------|

G|--6-6-6-6-6-6-6-6---------|--3-3---5-5---6-6---------|

D|--6-6-6-6-6-6-6-6---------|--4-4---6-6---6-6---------|

A|--4-4-4-4-4-4-4-4---------|--4-4---6-6---4-4---------|

E|--------------------------|--2-2---4-4---------------|

 

 

E|--------------------------|----------------------------|

B|--6-6-6-6-6-6-6-6---------|--x-x-x-x-x-x-x-x-x-x-x-x---|

G|--6-6-6-6-6-6-6-6---------|--x-x-x-x-x-x-x-x-x-x-x-x---|

D|--6-6-6-6-6-6-6-6---------|--x-x-x-x-x-x-x-x-x-x-x-x---|

A|--4-4-4-4-4-4-4-4---------|--x-x-x-x-x-x-x-x-x-x-x-x---|

E|--------------------------|----------------------------|

 

 

E|--------------------------|--2-2---4-4---------------|

B|--6-6-6-6-6-6-6-6---------|--2-2---4-4---6-6---------|

G|--6-6-6-6-6-6-6-6---------|--3-3---5-5---6-6---------|

D|--6-6-6-6-6-6-6-6---------|--4-4---6-6---6-6---------|

A|--4-4-4-4-4-4-4-4---------|--4-4---6-6---4-4---------|

E|--------------------------|--2-2---4-4---------------|

 

 

E|--------------------------|----------------------------|

B|--6-6-6-6-6-6-6-6---------|--x-x-x-x-x-x-x-x-x-x-x-x---|

G|--6-6-6-6-6-6-6-6---------|--x-x-x-x-x-x-x-x-x-x-x-x---|

D|--6-6-6-6-6-6-6-6---------|--x-x-x-x-x-x-x-x-x-x-x-x---|

A|--4-4-4-4-4-4-4-4---------|--x-x-x-x-x-x-x-x-x-x-x-x---|

E|--------------------------|----------------------------|

 

 

E|--------------------------|--2-2---4-4---------------|

B|--6-6-6-6-6-6-6-6---------|--2-2---4-4---6-6---------|

G|--6-6-6-6-6-6-6-6---------|--3-3---5-5---6-6---------|

D|--6-6-6-6-6-6-6-6---------|--4-4---6-6---6-6---------|

A|--4-4-4-4-4-4-4-4---------|--4-4---6-6---4-4---------|

E|--------------------------|--2-2---4-4---------------|

 

 

E|--------------------------|----------------------------|

B|--6-6-6-6-6-6-6-6---------|--x-x-x-x-x-x-x-x-x-x-x-x---|

G|--6-6-6-6-6-6-6-6---------|--x-x-x-x-x-x-x-x-x-x-x-x---|

D|--6-6-6-6-6-6-6-6---------|--x-x-x-x-x-x-x-x-x-x-x-x---|

A|--4-4-4-4-4-4-4-4---------|--x-x-x-x-x-x-x-x-x-x-x-x---|

E|--------------------------|----------------------------|

 

 

4:07

 

E|--2--2-2-2-2-2-2-2-2------------|---------------------------||

B|--2--2-2-2-2-2-2-2-2------------|---6--6-6-6-6-6-6-6--------||

G|--3--3-3-3-3-3-3-3-3------------|---6--6-6-6-6-6-6-6--------||

D|--4--4-4-4-4-4-4-4-4------------|---6--6-6-6-6-6-6-6--------||

A|--4--4-4-4-4-4-4-4-4------------|---4--4-4-4-4-4-4-4--------||

E|--2--2-2-2-2-2-2-2-2------------|---------------------------||

 

 

E|--2--2-2-2-2-2-2-2-2------------|---------------------------|

B|--2--2-2-2-2-2-2-2-2------------|---6--6-6-6-6-6-6-6--------|

G|--3--3-3-3-3-3-3-3-3------------|---6--6-6-6-6-6-6-6--------|

D|--4--4-4-4-4-4-4-4-4------------|---6--6-6-6-6-6-6-6--------|

A|--4--4-4-4-4-4-4-4-4------------|---4--4-4-4-4-4-4-4--------|

E|--2--2-2-2-2-2-2-2-2------------|---------------------------|

 

 

E|--2-2-4-4--2-2-4-4--2-2-4-4--|--2-2-4-4--4--4--4---------|

B|--2-2-4-4--2-2-4-4--2-2-4-4--|--2-2-4-4--4--4--4---------|

G|--3-3-5-5--3-3-5-5--3-3-5-5--|--3-3-5-5--5--5--5---------|

D|--4-4-6-6--4-4-6-6--4-4-6-6--|--4-4-6-6--6--6--6---------|

A|--4-4-6-6--4-4-6-6--4-4-6-6--|--4-4-6-6--6--6--6---------|

E|--2-2-4-4--2-2-4-4--2-2-4-4--|--2-2-4-4--4--4--4---------|

 

 

Solo - 4:27

 

Guitar 1:

 

E|--------------4--4-4-4-4--2--2-2-2-2--4--4-4-4-4--2--2-2-2-2--5-5-5-5----|

B|--6--6-6-6-6--4--4-4-4-4--2--2-2-2-2--4--4-4-4-4--2--2-2-2-2--5-5-5-5--6-|

G|--6--6-6-6-6--5--5-5-5-5--3--3-3-3-3--5--5-5-5-5--3--3-3-3-3--6-6-6-6--6-|

D|--6--6-6-6-6--6--6-6-6-6--4--4-4-4-4--6--6-6-6-6--4--4-4-4-4--7-7-7-7--6-|

A|--4--4-4-4-4--6--6-6-6-6--4--4-4-4-4--6--6-6-6-6--4--4-4-4-4--7-7-7-7--4-|

E|--------------4--4-4-4-4--2--2-2-2-2--4--4-4-4-4--2--2-2-2-2--5-5-5-5----|

| Guitar 2: |

E|-------------------------------------------------------------------------|

B|-------------------------------------------------------------------------|

G|--8b(10)--8b(10)r8--8b(10)r8-6~--8-6-------------------------------------|

D|-------------------------------------6--11-9-----------------------------|

A|---------------------------------------------9--9-11b(12)--11--9-11-9----|

E|----------------------------------------------------------------------9--|

 

 

"Dream America dream..." - 4:41

 

Guitar 1:

 

E|------------------4--4-4-4-4-----2--2-2-2-2---4--4-4-4-4-----------|

B|--6--6-6-6-6------4--4-4-4-4-----2--2-2-2-2---4--4-4-4-4-----------|

G|--6--6-6-6-6------5--5-5-5-5-----3--3-3-3-3---5--5-5-5-5-----------|

D|--6--6-6-6-6------6--6-6-6-6-----4--4-4-4-4---6--6-6-6-6-----------|

A|--4--4-4-4-4------6--6-6-6-6-----4--4-4-4-4---6--6-6-6-6-----------|

E|------------------4--4-4-4-4-----2--2-2-2-2---4--4-4-4-4-----------|

| Guitar 2: |

E|-------------------------------------------------------------------|

B|----------4--------------4--------------4----------------4---------|

G|------6-----6----------6---6---------6----6----------6-----6-------|

D|----6---6-----6------6-------6-----6---6----6------6---6-----6-----|

A|--4-------------4--3-----------3-----------------------------------|

E|---------------------------------6------------6--4--------------4--|

 

 

Guitar 1:

 

E|--2--2-2-2-2------5--5-5-5-5---------------------------------------|

B|--2--2-2-2-2------5--5-5-5-5-----6--6-6-6-6--6--6-6-6-6------------|

G|--3--3-3-3-3------6--6-6-6-6-----6--6-6-6-6--6--6-6-6-6------------|

D|--4--4-4-4-4------7--7-7-7-7-----6--6-6-6-6--6--6-6-6-6------------|

A|--4--4-4-4-4------7--7-7-7-7-----4--4-4-4-4--4--4-4-4-4------------|

E|--2--2-2-2-2------5--5-5-5-5---------------------------------------|

| Guitar 2: |

E|-------------------------------------------------------------------|

B|----------4--------------------------------------------------------|

G|------6-----6------------------------------------------------------|

D|----6---6-----6----------------------------------------------------|

A|--4-------------4--------------------------------------------------|

E|-------------------------------------------------------------------|

 

Guitar 1:

 

E|------------------4--4-4-4-4-----2--2-2-2-2---4--4-4-4-4-----------|

B|--6--6-6-6-6------4--4-4-4-4-----2--2-2-2-2---4--4-4-4-4-----------|

G|--6--6-6-6-6------5--5-5-5-5-----3--3-3-3-3---5--5-5-5-5-----------|

D|--6--6-6-6-6------6--6-6-6-6-----4--4-4-4-4---6--6-6-6-6-----------|

A|--4--4-4-4-4------6--6-6-6-6-----4--4-4-4-4---6--6-6-6-6-----------|

E|------------------4--4-4-4-4-----2--2-2-2-2---4--4-4-4-4-----------|

| Guitar 2: |

E|-------------------------------------------------------------------|

B|----------4--------------4--------------4----------------4---------|

G|------6-----6----------6---6---------6----6----------6-----6-------|

D|----6---6-----6------6-------6-----6---6----6------6---6-----6-----|

A|--4-------------4--3-----------3-----------------------------------|

E|---------------------------------6------------6--4--------------4--|

 

 

Guitar 1:

 

E|--2--2-2-2-2------5--5-/-------------------------------------------|

B|--2--2-2-2-2------5--5-/-------------------------------------------|

G|--3--3-3-3-3------6--6-/-------------------------------------------|

D|--4--4-4-4-4------7--7-/-------------------------------------------|

A|--4--4-4-4-4------7--7-/-------------------------------------------|

E|--2--2-2-2-2------5--5-/-------------------------------------------|

| Guitar 2: |

E|-------------------------------------------------------------------|

B|----------4--------------------------------------------------------|

G|------6-----6------------------------------------------------------|

D|----6---6-----6----------------------------------------------------|

A|--4-------------4--------------------------------------------------|

E|-------------------------------------------------------------------|

 

 

 

e--------------------------------------------||

b---------------------TAB--------------------||

g------------------DEDICATED-----------------||

d-----------------TO EADAOIN-----------------||

a--------------------XXXX--------------------||

e--------------------------------------------||

 

 

Tablature Notation:

|| . . . Play bar twice

~ . . . vibrato

h . . . hammer-on

p . . . pull-off

/ . . . slide

11b(12). . bend the note on the 11thfret to the note in the brackets ie

a semi tonal bend in this case.

11b(12)r11 . . . bend as previously explained and release to the note on the 11th fret.

 

 

My email is ultimate-guitartabber@hotmail.com if you have any questions or

comments but constructive criticism only please.

Return to my Green Day Guitar Tabs page

The Tablature is Copyright its respective owners.

Sign Up For My Newsletter
Subscribe | Unsubscribe

Site Map | Disclaimer | Privacy Policy | Media Kit | Submissions/Corrections

Website © 2000-2014 mattsmusicpage.com. All rights reserved.

Legal & DMCA: Matt's Music Page has been providing lyrics and tabs in a legal way, paying royalties each year to a few organizations. Then, all lyrics and tabs were removed from the site. Now, there's a new owner to the site, which purchased it August 26, 2014, and he is in negotiation to obtain licensing from BMI at the moment. If you have a specific DMCA request -- please do not hesitate to contact me via the contact button on top. I will do my very best to keep this site fully legal.

Get our toolbar!