Your One-Stop Source For
Music Lyrics
Bass and Guitar Tabs
and More...
>Music Lyrics Bass and Guitar Tabs

 

The Green Day Bass Tabs Are Below

Learn To Read Tab
Chords Handbook
Corrections & Additions
Get Official Tab
Green Day tabs @ 911Tabs

21ST CENTURY BREAKDOWN - Green Day

-------------------------------------------------------------------------------

 

Tabbed By : arm0792

e-mail: bahamut.92@hotmail.com

 

Tuning: Half-Step Down (D#-B#-C#-F#)

 

 

Q=120 Key D(##)

Intro & Verse 1: X3

Q. Q E E E Q. Q E E E Q. Q E E E E E E Q E E E

G|-----------------|-----------------|-----------------|-----------------||

D|-----------------|-----------------|-----------------|-7-7-7-5---4-----||

A|-5-----5---5-5-0-|-----------------|-5-----5---5-5-0-|-------------7-0-||

E|-----------------|-5-----3---3-5-7-|-----------------|-----------------||

 

Pre-chorus:

Q. Q E Q Q. Q E E E Q. Q E Q E E E E q q

G|-----------------|-----------------|-----------------|-----------------||

D|-----------------|-----------------|-----------------|-----------------||

A|-2-----2---2-2---|/10----10--10100-|-2-----2---2-2---|-1010101012--12--||

E|-----------------|-----------------|-----------------|-----------------||

 

Chorus: X2

Q Q E Q E +E Q E E E E E Q Q E Q E +E Q E E E E E

G|-----------------|-----------------|-----------------|-----------------||

D|---------7-7---5-|(5)5-------------|---------7-7---5-|(5)5---5-5-4-----||

A|-5---5-----------|-----------------|-5---5-----------|-------------7-0-||

E|---------5-5---3-|(3)3---2-3-3-5-7-|---------5-5---3-|(3)3-------------||

 

Post-chorus & Verse 2: X3

Q. Q E E E Q. Q E E E Q. Q E E E E E E Q E E E

G|-----------------|-----------------|-----------------|-----------------||

D|-----------------|-----------------|-----------------|-7-7-7-5---4-----||

A|-5-----5---5-5-0-|-----------------|-5-----5---5-5-0-|-------------7-0-||

E|-----------------|-5-----3---3-5-7-|-----------------|-----------------||

 

Pre-chorus

Q. Q E Q Q. Q E E E Q. Q E Q E E E E q q

G|-----------------|-----------------|-----------------|-----------------||

D|-----------------|-----------------|-----------------|-----------------||

A|-2-----2---2-2---|/10----10--1010-0|-2-----2---2-2---|-1010101012--12--||

E|-----------------|-----------------|-----------------|-----------------||

 

Chorus:

Q Q E Q E +E Q E E E E E Q Q E Q E +E Q E E E E E

G|-----------------|-----------------|-----------------|-----------------|

D|---------7-7---5-|(5)5-------------|---------7-7---5-|(5)5---5-5-4-----|

A|-5---5-----------|-----------------|-5---5-----------|-------------7-0-|

E|---------5-5---3-|(3)3---2-3-3-5-7-|---------5-5---3-|(3)3-------------|

 

Q Q E Q E +E Q E E E E E Q Q E Q E +E E E E E E E E

G|-----------------|-----------------|-----------------|-----------------||

D|---------7-7---5-|(5)5-------------|---------7-7---5-|(5)5-5-5-5-5-5-5-||

A|-5---5-----------|-----------------|-5---5-----------|-----------------||

E|---------5-5---3-|(3)3---2-3-3-5-7-|---------5-5---3-|(3)--------------||

|--3--|

Q=152 (E E)=(Q E)

Instrumental:

W +W +W +W

G|-----------------|-----------------|-----------------|-----------------|

D|-7---------------|(7)--------------|(7)--------------|(7)--------------|

A|-----------------|-----------------|-----------------|-----------------|

E|-----------------|-----------------|-----------------|-----------------|

 

Wx12

G|-----------------||

D|-----------------||

A|-----------------||

E|-----------------||

 

Verse 3:

W H. Q W H. Q

G|-----------------|-----------------|-----------------|-----------------|

D|-----------------|-----------------|-----------------|-----------------|

A|-----------------|-------------5---|-----------------|-------------5---|

E|-----------------|-----------------|-----------------|-----------------|

 

W H. Q W W

G|-----------------|-----------------|-----------------|-----------------|

D|-----------------|-----------------|-----------------|-----------------|

A|-----------------|-------------5---|-----------------|-----------------|

E|-----------------|-----------------|-----------------|-----------------|

 

|--3--| |--3--| |--3--|

E E E E E E E E E E E E E E E E E Q X4

G|-------------------------|-------------------------||

D|-------------------------|-------------------------||

A|-5--5--5-5-5-5--5--5-5-5-|-5--5--5-5-5-5--5--5-----||

E|-------------------------|-------------------------||

 

Verse 4:

|--3--| |--3--| |--3--|

E E E E E E E E E E Q Q E E E E E

G|-------------------------|-------------------------|

D|-------------------------|-------------------------|

A|-5--5--5-5-5-5--5--5-5-5-|-------------5--5--5-5-5-|

E|-------------------------|-3-----5-----------------|

 

|--3--| |--3--| |--3--|--3--|--3--|--3--|

E E E E E E E E E E E E E E E E E E E E E E X4

G|-------------------------|-------------------------||

D|-------------------------|-------------------------||

A|-5--5--5-5-5-5--5--5-5-5-|-0-0-0-0-0-0-0-0-0-0-0-0-||

E|-------------------------|-------------------------||

 

 

Interlude:

 

|--3--| |--3--| |--3--|

E E E E E E E E E E E E E E E E E Q X3

G|-------------------------|-------------------------|

D|-------------------------|-------------------5-----|

A|-5--5--5-5-5-5--5--5-5-5-|-5--5--5-5-5-5--5--------|

E|-------------------------|-------------------------|

|--3--| |--3--| |--3--|

E E E E E E E E E E E E E E E E E E E

G|-------------------------|-------------------------||

D|-------------------------|-------------------5-----||

A|-5--5--5-5-5-5--5--5-5-5-|-5--5--5-5-5-5--5-----0--||

E|-------------------------|-------------------------||

 

Verse 5:

|--3--| |--3--| |--3--|

E E E E E E E E E E Q Q E E E E E

G|-------------------------|-------------------------|

D|-------------------------|-------------------------|

A|-5--5--5-5-5-5--5--5-5-5-|-------------5--5--5-5-5-|

E|-------------------------|-3-----5-----------------|

 

|--3--| |--3--| |--3--|--3--|--3--|--3--|

E E E E E E E E E E E E E E E E E E E E E E X4

G|-------------------------|-------------------------||

D|-------------------------|-------------------------||

A|-5--5--5-5-5-5--5--5-5-5-|-0-0-0-0-0-0-0-0-0-0-0-0-||

E|-------------------------|-------------------------||

 

Bridge:

E E E E E E E E E E E E E E E E

G|-------------------------|-------------------------|

D|-------------------------|-------------------------|

A|-------------------------|-5--5--5--5--5--5--5--0--|

E|-3--3--3--3--3--3--5--5--|-------------------------|

 

E E E E E E E E E E E E E E E E

G|-------------------------|-------------------------|

D|-------------------------|-------------------------|

A|-------------------------|-5--5--5--5--5--5--5--0--|

E|-3--3--3--3--3--3--5--5--|-------------------------|

 

E E E E E E E E E E E E E E E E

G|-------------------------|-------------------------|

D|-5--5--5--5--5--5--7--7--|-------------------------|

A|-------------------------|-5--5--5--5--5--5--5--0--|

E|-------------------------|-------------------------|

 

2/4 4/4

|----3----| |----3----|

Q Q Q H Q Q Q

G|-------------|-------------------------|

D|-------------|-------------------------|

A|-------------|-------------------------|

E|-3---3---3---|-5-----------3---3---3---|

 

|----3----| |----3----|

H Q Q Q H Q Q Q

G|-------------------------|-------------------------|

D|-------------------------|-------------------------|

A|-------------------------|-------------------------|

E|-5-----------3---3---3---|-5-----------3---3---3---|

 

Q=120

H H H H H H H H

G|-----------------|-----------------|-----------------|-----------------||

D|-----------------|-----------------|-----------------|-----------------||

A|-----------------|-----------------|-----------------|-----------------||

E|-5-------5-------|-5-------5-------|-5-------5-------|-5-------5-------||

 

Q=72

Guitar Solo:

Q. E Q. E Q. E Q. E Q. E Q. E Q E. SH

G|-----------------|-----------------|-----------------|-----------------||

D|-----------------|---------7-----7-|-----------------|-----------------||

A|-5-----5-4-----4-|-2-----2---------|-----------------|-5---5--55-------||

E|-----------------|-----------------|-3-----3-6-----6-|-----------------||

 

Outro:

Q. E Q. E Q. E Q. E Q. E Q. E Q E E Q SSE

G|-----------------|-----------------|-----------------|-----------------|

D|-----------------|---------7-----7-|-----------------|-----------------|

A|-5-----5-4-----4-|-2-----2---------|-----------------|-5---5-5-5---555-|

E|-----------------|-----------------|-3-----3-6-----6-|-----------------|

 

Q. E Q. E Q. E Q. E Q. E Q +E E

G|-----------------|-----------------|-----------------||

D|-----------------|---------7-----7-|-----------------||

A|-5-----5-4-----4-|-2-----2---------|-----------------||

E|-----------------|-----------------|-3-----3-6--(6)/-||

Return to my Green Day Bass tabs page

The Tablature is Copyright its respective owners.

Sign Up For My Newsletter
Subscribe | Unsubscribe

Site Map | Disclaimer | Privacy Policy | Media Kit | Submissions/Corrections

Website © 2000-2014 mattsmusicpage.com. All rights reserved.

Legal & DMCA: Matt's Music Page has been providing lyrics and tabs in a legal way, paying royalties each year to a few organizations. Then, all lyrics and tabs were removed from the site. Now, there's a new owner to the site, which purchased it August 26, 2014, and he is in negotiation to obtain licensing from BMI at the moment. If you have a specific DMCA request -- please do not hesitate to contact me via the contact button on top. I will do my very best to keep this site fully legal.

Get our toolbar!

 

Vintage Bols Ballerina Liqueur Bottle Music Box Dancer Works Empty Collectible
$24.95
Vintage Bols Ballerina Liqueur Bottle Music Box Dancer Works Empty Collectible picture


Vintage Chinese White Label 78rpm Record Till I Waltz Again With You Estate Find
$8.99
Vintage Chinese White Label 78rpm Record Till I Waltz Again With You Estate Find picture


Vintage Ceramic Music Box HIMARK "SEND IN THE CLOWNS" Turning Musical Figurine
$14.95
Vintage Ceramic Music Box HIMARK


Vintage 1980 Seymour Mann Bisque Porcelain Siamese Cats Music Box Japan
$9.99
Vintage 1980 Seymour Mann Bisque Porcelain Siamese Cats Music Box Japan picture


Vintage Valentine Footed Heart Shape Wind up Toyo Music Box w/ Tune Feelings
$24.99
 Vintage Valentine Footed Heart Shape Wind up Toyo Music Box w/ Tune Feelings picture