Your One-Stop Source For
Music Lyrics
Bass and Guitar Tabs
and More...
Music Lyrics Bass and Guitar Tabs

 

The Tabs Are Below

Learn To Read Tab
Chords Handbook
Corrections & Additions
Get Official Tab
Good Charlotte tabs @ 911Tabs

Tabbed by:Jordan S.

Please Rate, this is my first tab. But from an experienced player. This is off GC's new

album "The Chronicles of Life and Death". Track #8 called Secrets, pretty cool song,

easy 2. I'm sure its pretty close if not 100%. Any suggestions or questions e-mail me at

jordantsinclair@yahoo.com. I'd appreciate a tab of "The World is Black" off the same cd

if anyone knows it. Thx, Enjoy.

 

Tuning:Standard EBGDAE

 

Intro

E-----x---x---x---x---x--x---x--| x3

B-----x---x---x---x---x--x---x--|

G-----8---7---5---3---x--3---8--|

D-----9---8---6---4---2--4---9--|

A-----9---8---6---4---2--4---9--|

E-----7---6---4---2------2---7--|

 

Lead Intro:

E--------------------------------------| X2

B--------------------------------------|

G--11----6----9----8----4---6-4(ring)--|

D--------------------------------------|

A--------------------------------------|

E--------------------------------------|

 

Verse:

E---x-x-x(Palm Mute)---x-x-x(Palm Mute)---x-(Palm Mute)---xx-|

B---x-x-x ---x-x-x ---x- ---xx-|

G---8-x-x ---5-x-x ---x- ---8x-|

D---9-x-x ---6-x-x ---2- ---9x-|

A---9-x-x ---6-x-x ---2- ---9x-|

E---7-x-x ---4-x-x ----- ---7x-|

 

 

E---x-x-x(Palm Mute)---x-x-x(Palm Mute)---x-x(Palm Mute)---x-|

B---x-x-x ---x-x-x ---x-x ---x-|

G---8-x-x ---5-x-x ---x-x ---3-|

D---9-x-x ---6-x-x ---2-x ---4-|

A---9-x-x ---6-x-x ---2-x ---4-|

E---7-x-x ---4-x-x -----x ---2-|

 

Chorus:

E-----x---x---x---x---x--x---x--| x2

B-----x---x---x---x---x--x---x--|

G-----8---7---5---3---x--3---8--|

D-----9---8---6---4---2--4---9--|

A-----9---8---6---4---2--4---9--|

E-----7---6---4---2------2---7--|

 

E---x--x--x---------------------| x4

B---x--x--5-----(Lead-5-4-2)----|

G---8--3--6---------------------|

D---9--4--6---------------------|

A---9--4--4---------------------|

E---7--2------------------------|

 

E-----x---x---x---x---x--x---x--| x1

B-----x---x---x---x---x--x---x--|

G-----8---7---5---3---x--3---8--|

D-----9---8---6---4---2--4---9--|

A-----9---8---6---4---2--4---9--|

E-----7---6---4---2------2---7--|

 

Verse:

E---x-x-x(Palm Mute)---x-x-x(Palm Mute)---x-(Palm Mute)---xx-|

B---x-x-x ---x-x-x ---x- ---xx-|

G---8-x-x ---5-x-x ---x- ---8x-|

D---9-x-x ---6-x-x ---2- ---9x-|

A---9-x-x ---6-x-x ---2- ---9x-|

E---7-x-x ---4-x-x ----- ---7x-|

 

 

E---x-x-x(Palm Mute)---x-x-x(Palm Mute)---x-x(Palm Mute)---x-|

B---x-x-x ---x-x-x ---x-x ---x-|

G---8-x-x ---5-x-x ---x-x ---3-|

D---9-x-x ---6-x-x ---2-x ---4-|

A---9-x-x ---6-x-x ---2-x ---4-|

E---7-x-x ---4-x-x -----x ---2-|

 

Chorus:

E-----x---x---x---x---x--x---x--| x2

B-----x---x---x---x---x--x---x--|

G-----8---7---5---3---x--3---8--|

D-----9---8---6---4---2--4---9--|

A-----9---8---6---4---2--4---9--|

E-----7---6---4---2------2---7--|

 

E---x--x--x---------------------| x4

B---x--x--5-----(Lead-5-4-2)----|

G---8--3--6---------------------|

D---9--4--6---------------------|

A---9--4--4---------------------|

E---7--2------------------------|

 

E-----x---x---x---x---x--x---x--| x1

B-----x---x---x---x---x--x---x--|

G-----8---7---5---3---x--3---8--|

D-----9---8---6---4---2--4---9--|

A-----9---8---6---4---2--4---9--|

E-----7---6---4---2------2---7--|

 

Bridge:No Guitar here, but played same as 2nd part of chorus, play if u want 2...

Then comes back in low then louder w/ same riff. Add lead B-5-4-2.

 

E---x--x--x---------------------| x6

B---x--x--5---------------------|

G---8--3--6---------------------|

D---9--4--6---------------------|

A---9--4--4---------------------|

E---7--2------------------------|

 

OR

 

E--------------------------------------| X2

B--------------------------------------|

G--11----6----9----8----4---6-4(ring)--|

D--------------------------------------|

A--------------------------------------|

E--------------------------------------|

 

End Lead:

E-----------------------------------|

B-----------------------------------|

G---4-(H)6------------------9-------|(Ring)

D-----------------------------------|

A-----------------------------------|

E-----------------------------------|

 

 

Return to my Good Charlotte tabs page

The Tablature is Copyright its respective owners.

Sign Up For My Newsletter
Subscribe | Unsubscribe

Site Map | Disclaimer | Privacy Policy | Media Kit | Submissions/Corrections

Website © 2000-2014 mattsmusicpage.com. All rights reserved.

Legal & DMCA: Matt's Music Page has been providing lyrics and tabs in a legal way, paying royalties each year to a few organizations. Then, all lyrics and tabs were removed from the site. Now, there's a new owner to the site, which purchased it August 26, 2014, and he is in negotiation to obtain licensing from BMI at the moment. If you have a specific DMCA request -- please do not hesitate to contact me via the contact button on top. I will do my very best to keep this site fully legal.

Get our toolbar!

 

1939 LYRIC THEATRE New York PHOTO
$5.83
1939 LYRIC THEATRE New York PHOTO picture


Star Spangled Banner or Marines Hymn lyrics signed by WWII Charles W. Lindberg
$10.0
Star Spangled Banner or Marines Hymn lyrics signed by WWII Charles W. Lindberg picture


OLD LARGE HISTORIC PHOTO OF THE LYRIC THEATRE, SYDNEY c1930s, WAR BONDS BOOTH
$7.42
OLD LARGE HISTORIC PHOTO OF THE LYRIC THEATRE, SYDNEY c1930s, WAR BONDS BOOTH picture


SONG OF REVOLUTION CARD SET WITH 13 MOST FAVORED COMMUNIST SONGS LYRICS + NOTES
$24.99
SONG OF REVOLUTION CARD SET WITH 13 MOST FAVORED COMMUNIST SONGS LYRICS + NOTES picture


OLD LARGE HISTORIC PHOTO OF THE LYRIC THEATRE, SYDNEY c1930s, WAR LOANS BOOTH
$7.42
OLD LARGE HISTORIC PHOTO OF THE LYRIC THEATRE, SYDNEY c1930s, WAR LOANS BOOTH picture