Your One-Stop Source For
Music Lyrics
Bass and Guitar Tabs
and More...
Music Lyrics Bass and Guitar Tabs

 

The Tabs Are Below

Learn To Read Tab
Chords Handbook
Corrections & Additions
Get Official Tab
Good Charlotte tabs @ 911Tabs

good charlotte "seasons (acoustic)"

tabed by randy chiasson

got_focin_milk@hotmail.com

 

 

...these tabs are perfect so if you disagree.. bring it!!!

 

 

verse

 

---------------|------------------

--------------:|------------------

-5------5------|X7----------------

-5-5-3--5-5----|------------------

-3-5-3--3-5---:|------------------

---3-1----3----|------------------

 

pre chorus

 

--------------3--------------------

-3---3---3----3--------------------

-2-3-2-3-3-3----------------------

-2-2-2-2-2-3----------------------

---2---2---2--2--------------------

--------------3--------------------

 

the rest is just repeating... go figure!

 

dedicated to lisa...

 

your local gosu

-randy-

 

 

Return to my Good Charlotte tabs page

The Tablature is Copyright its respective owners.

Sign Up For My Newsletter
Subscribe | Unsubscribe

Site Map | Disclaimer | Privacy Policy | Media Kit | Submissions/Corrections

Website © 2000-2014 mattsmusicpage.com. All rights reserved.

Get our toolbar!