Your One-Stop Source For
Music Lyrics
Bass and Guitar Tabs
and More...
Music Lyrics Bass and Guitar Tabs

 

The Tabs Are Below

Learn To Read Tab
Chords Handbook
Corrections & Additions
Get Official Tab
Good Charlotte tabs @ 911Tabs

band:good charlotte

song:seasons

 

tabbed by:adam dansereau

 

listen to the song to get the strumming

 

h=hammer

b=bend

 

verse 1 / chorus:

e|-0----3----0----0-------------3---|

b|-1----3----1----1----0h1-0----3---|

g|-0----0----2----0-------------0---|

d|-2----0----3----2-------------0---|

a|-3----2----3----3-------------2---|

e|-3----3---------3-------------3---|

 

verse 2:

 

kick in distortion

 

e|------------------------------------|

b|------------------------------------|

g|------5--------------5----4b--------|

d|-0----5----5----3----5----------5---|

a|------3----5----3----3----------5---|

e|-----------3----1---------------3---|

 

bridge:

 

e|-----------------------------------|

b|-----------------------------------|

g|-2---------2---------2-------------|

d|-2----2----2----2----2----2----5---|

a|-0----2----0----2----0----2----5---|

e|------0---------0---------0----3---|

 

 

verse 3:

 

e|-------------------------|

b|-------------------------|

g|-5---------2-------------|

d|-5----5----2----3----5---|

a|-3----5----0----3----5---|

e|------3---------1----3---|

 

 

song structure:

 

verse 1: 2x

 

chorus: 2x

 

verse 2: 2x

 

chorus: 2x

 

bridge: 1x

 

chorus: 2x

 

verse 3: 2x

 

chorus: 2x

 

 

* that's it hope you enjoy *

 

 

Return to my Good Charlotte tabs page

The Tablature is Copyright its respective owners.

Sign Up For My Newsletter
Subscribe | Unsubscribe

Site Map | Disclaimer | Privacy Policy | Media Kit | Submissions/Corrections

Website © 2000-2014 mattsmusicpage.com. All rights reserved.

Legal & DMCA: Matt's Music Page has been providing lyrics and tabs in a legal way, paying royalties each year to a few organizations. Then, all lyrics and tabs were removed from the site. Now, there's a new owner to the site, which purchased it August 26, 2014, and he is in negotiation to obtain licensing from BMI at the moment. If you have a specific DMCA request -- please do not hesitate to contact me via the contact button on top. I will do my very best to keep this site fully legal.

Get our toolbar!

 

1939 LYRIC THEATRE New York PHOTO
$5.83
1939 LYRIC THEATRE New York PHOTO picture


Star Spangled Banner or Marines Hymn lyrics signed by WWII Charles W. Lindberg
$10.0
Star Spangled Banner or Marines Hymn lyrics signed by WWII Charles W. Lindberg picture


OLD LARGE HISTORIC PHOTO OF THE LYRIC THEATRE, SYDNEY c1930s, WAR BONDS BOOTH
$7.42
OLD LARGE HISTORIC PHOTO OF THE LYRIC THEATRE, SYDNEY c1930s, WAR BONDS BOOTH picture


SONG OF REVOLUTION CARD SET WITH 13 MOST FAVORED COMMUNIST SONGS LYRICS + NOTES
$24.99
SONG OF REVOLUTION CARD SET WITH 13 MOST FAVORED COMMUNIST SONGS LYRICS + NOTES picture


OLD LARGE HISTORIC PHOTO OF THE LYRIC THEATRE, SYDNEY c1930s, WAR LOANS BOOTH
$7.42
OLD LARGE HISTORIC PHOTO OF THE LYRIC THEATRE, SYDNEY c1930s, WAR LOANS BOOTH picture