Your One-Stop Source For
Music Lyrics
Bass and Guitar Tabs
and More...
Music Lyrics Bass and Guitar Tabs

 

The Tabs Are Below

Learn To Read Tab
Chords Handbook
Corrections & Additions
Get Official Tab
Good Charlotte tabs @ 911Tabs

Good Charlotte - Motivation Proclamation

 

 

By: Rob Fagnani

 

In order to use figure the rythym out, play it with the song.

 

 

Intro/Verse:

 

E--3--3|3-3-3-3-3|-2-2-2--2|-3--3-3-3-3---------------------------------

B--3--3|3-3-3-3-3|-3-3-3--3|-3--3-3-3-3---------------------------------

G--0--0|0-0-0-0-0|-2-2-2--2|-0--0-0-0-0---------------------------------

D--0--0|2-2-2-2-2|-0-0-0--0|-2--2-2-2-2---------------------------------

A--2--2|3-3-3-3-3|-x-x-x--x|-3--3-3-3-3---------------------------------

E--3--3|x-x-x-x-x|-x-x-x--x|-x--x-x-x-x---------------------------------

 

 

Bridge:

 

E----3----3---3--3-3--3--3----3----3---3--3-3--3--3--------------------

B----3----3---3--3-3--3--3----3----3---3--3-3--3--3--------------------

G----2----2---2--2-2--2--2----0----0---0--0-0--0--0--------------------

D----0----0---0--0-0--0--0----x----x---x--x-x--x--x--------------------

A----x----x---x--x-x--x--x----3----3---3--3-3--3--3--------------------

E----x----x---x--x-x--x--x----x----x---x--x-x--x--x--------------------

 

 

E----0----0----0-0--0--0----3----3----3-3--3--3---------------------

B----1----1----1-1--1--1----3----3----3-3--3--3---------------------

G----2----2----2-2--2--2----2----2----2-2--2--2---------------------

D----2----2----2-2--2--2----0----0----0-0--0--0---------------------

A----0----0----0-0--0--0----x----x----x-x--x--x---------------------

E----x----x----x-x--x--x----x----x----x-x--x--x---------------------

 

 

E----3----3----3-3--3--3----0----0----0-0--0--0------------------

B----3----3----3-3--3--3----1----1----1-1--1--1------------------

G----0----0----0-0--0--0----2----2----2-2--2--2------------------

D----x----x----x-x--x--x----2----2----2-2--2--2------------------

A----3----3----3-3--3--3----0----0----0-0--0--0------------------

E----x----x----x-x--x--x----x----x----x-x--x--x-------------------

 

 

E----3--3--3--3--3--3--3--3--3--3--3--3--3--3-----------------------

B----3--3--3--3--3--3--3--3--3--3--3--3--3--3-----------------------

G----2--2--2--2--2--2--2--2--2--2--2--2--2--2-----------------------

D----0--0--0--0--0--0--0--0--0--0--0--0--0--0-----------------------

A----x--x--x--x--x--x--x--x--x--x--x--x--x--x-----------------------

E----x--x--x--x--x--x--x--x--x--x--x--x--x--x-----------------------

 

 

Chorus:

 

E------------------------------------------------------------------------------

B------------------------------------------------------------------------------

G------------------------------------------------------------------------------

D-5-5--10-10-10-10--12-12-12-12----10-10-10-10-9-7-5-----------------------x2--

A-5-5--10-10-10-10--12-12-12-12----10-10-10-10-9-7-5---------------------------

E-3-3--8--8--8--8---10-10-10-10----8--8--8--8--7-5-3---------------------------

 

 

E------------------------------------------------------------------------------

B------------------------------------------------------------------------------

G------------------------------------------------------------------------------

D-5--5-5-5--x-x-x-x--10---10--x-x--12-12-12-12--x-x-x-x--10---10--x-x------x2--

A-5--5-5-5--x-x-x-x--10---10--x-x--12-12-12-12--x-x-x-x--10---10--x-x----------

E-3--3-3-3--x-x-x-x--8----8---x-x--10-10-10-10--x-x-x-x--8----8---x-x----------

 

 

Solo:

 

E------------------10----------------------------------------------------------

B-----------12---------------12---10----------12----10----10-10-12-10----------

G------------------------12----------12----12----12----12-------------12-------

D-12-12--12-----12----12----------------12-------------------------------------

A------------------------------------------------------------------------------

E------------------------------------------------------------------------------

 

 

E------------------------------------------------------------------------------

B------------------------------------------------------------------------------

G--------------------------12-------12-------12-------14------12-------12------

D-14-12----------12--12p14----12p14----12p14----12p14----12p14---12p14---------

A-------14-12-14---------------------------------------------------------------

E------------------------------------------------------------------------------

 

 

E--------------------------xxxx----------xxxx----------------------------------

B-12-15-12-----------------xxxx----------xxxx----------------------------------

G----------14-12--------12-xxxx-------12-xxxx-------12--15b--------------------

D-----------------12p14----xxxx-12p14----xxxx-12p14----------------------------

A--------------------------xxxx----------xxxx----------------------------------

E--------------------------xxxx----------xxxx----------------------------------

 

That's about it!

 

 

Return to my Good Charlotte tabs page

The Tablature is Copyright its respective owners.

Sign Up For My Newsletter
Subscribe | Unsubscribe

Site Map | Disclaimer | Privacy Policy | Media Kit | Submissions/Corrections

Website © 2000-2014 mattsmusicpage.com. All rights reserved.

Legal & DMCA: Matt's Music Page has been providing lyrics and tabs in a legal way, paying royalties each year to a few organizations. Then, all lyrics and tabs were removed from the site. Now, there's a new owner to the site, which purchased it August 26, 2014, and he is in negotiation to obtain licensing from BMI at the moment. If you have a specific DMCA request -- please do not hesitate to contact me via the contact button on top. I will do my very best to keep this site fully legal.

Get our toolbar!

 

Starbucks You Are Here Coffee Mug/Cup KENTUCKY - Horses, Banjo, Blue, White
$19.99
Starbucks You Are Here Coffee Mug/Cup KENTUCKY - Horses, Banjo, Blue, White picture


KNOWLES ROCKWELL HERITAGE "THE BANJO PLAYER" FIRST EDITION 1989 PLATE COA
$5.99
KNOWLES ROCKWELL HERITAGE


Vintage Postcard 1981 Disney World Banjo Kings Main Street USA 1981 Postmark
$4.99
 Vintage Postcard 1981 Disney World Banjo Kings Main Street USA 1981 Postmark picture


Banjo Barometer With Thermometer Hygrometer 490mm
$84.76
Banjo Barometer With Thermometer Hygrometer 490mm picture


ANTIQUE JAPANESE NIPPON FIGURINE SET OF 3 WOMEN GEISHA PLAYING DRUM BANJO FAN
$24.0
ANTIQUE JAPANESE NIPPON FIGURINE SET OF 3 WOMEN GEISHA PLAYING DRUM BANJO FAN picture