Your One-Stop Source For
Music Lyrics
Bass and Guitar Tabs
and More...
Music Lyrics Bass and Guitar Tabs

 

The Tabs Are Below

Learn To Read Tab
Chords Handbook
Corrections & Additions
Get Official Tab
Good Charlotte tabs @ 911Tabs

Intro:

1|---------------------------------------|

2|---------------------------------------|

3|---------------------------------------|

4|11-11-11-11-11---66-5-44444---55-6-----| X5

5|11-11-11-11-11---66-5-44444---55-6-----|

6|11-11-11-11-11---66-5-44444---55-6-----|

Verse:

1|--------------------------------------------------|

2|--------------------------------------------------|

3|--------------------------------------------------|

4|11-11-11-11-11---66-5-44444---{55-6}--(5555-6666)\| X2

5|11-11-11-11-11---66-5-44444---{55-6}--(5555-6666)\|

6|11-11-11-11-11---66-5-44444---{55-6}--(5555-6666)\|

 

{} first time. () second time. \ Slide up.

Chorus:

1|-----------------------------------------|

2|-----------------------------------------|

3|-----------------------------------------|

4|11-11-11-11-11-11-666666-444444-555555---| X4

5|11-11-11-11-11-11-666666-444444-555555---|

6|11-11-11-11-11-11-666666-444444-555555---|

 

1|-----------------------------------------|

2|-----------------------------------------|

3|-----------------------------------------|

4|5-5-5-6-7-6-5-6-7-8-9-10-11--------------|

5|5-5-5-6-7-6-5-6-7-8-9-10-11--------------|

6|5-5-5-6-7-6-5-6-7-8-9-10-11--------------|

 

Song Order:

Intro

Verse

Chorus

Verse

Verse

Chorus

Outro----(Same as Intro)

 

Return to my Good Charlotte tabs page

The Tablature is Copyright its respective owners.

Sign Up For My Newsletter
Subscribe | Unsubscribe

Site Map | Disclaimer | Privacy Policy | Media Kit | Submissions/Corrections

Website © 2000-2014 mattsmusicpage.com. All rights reserved.

Legal & DMCA: Matt's Music Page has been providing lyrics and tabs in a legal way, paying royalties each year to a few organizations. Then, all lyrics and tabs were removed from the site. Now, there's a new owner to the site, which purchased it August 26, 2014, and he is in negotiation to obtain licensing from BMI at the moment. If you have a specific DMCA request -- please do not hesitate to contact me via the contact button on top. I will do my very best to keep this site fully legal.

Get our toolbar!