Your One-Stop Source For
Music Lyrics
Bass and Guitar Tabs
and More...
Music Lyrics Bass and Guitar Tabs

 

The Tabs Are Below

Learn To Read Tab
Chords Handbook
Corrections & Additions
Get Official Tab
Good Charlotte tabs @ 911Tabs

band-Good Charolotte

song-festival song

 

hi!

this is a quite e z to play song ull probably learn it the first time u c it

 

 

InTrO: (clean)

 

1|---------------------------------|

2|---8-8-8---7-7-7-7---------------|

3|---7-7-7---7-7-7-7---------------|

4|---7-7-7---7-7-7-7--7-7-7---5-5-5| play twice

5|--------------------7-7-7---5-5-5|

6|--------------------5-5-5---3-3-3|

 

play same as intro (distorted) twice

 

 

play lots of time through the verse

1|-----------------------------|

2|-----------------------------|

3|---7-7-7-7-------------------|

4|---7-7-7-7---7-7-7---5-5-5---|

5|---5-5-5-5---7-7-7---5-5-5---|

6|---5-5-5-5---5-5-5---3-3-3---|

 

pre-chorous (distorted)

 

1|----------------------------------------------------|

2|----------------------------------------------------|

3|---7-7-7-7------------------------------------------|

4|---7-7-7-7---7-7-7-7-7-7-7-7-7-7-7-7-7-7-7-7-7-7-7-7|

5|---5-5-5-5---7-7-7-7-7-7-7-7-7-7-7-7-7-7-7-7-7-7-7-7|

6|---5-5-5-5---5-5-5-5-5-5-5-5-5-4-4-5-5-5-5-5-5-5-5-5|

 

Chorous

 

1|---------------------------------------------------------

2|---------------------------------------------------------

3|---7--7--7--7--7--7--------------------------------------

4|---7--7--7--7--7--7---5--5--5--5--5--5--5---7--7--7--7--7

5|---5--5--5--5--5--5---5--5--5--5--5--5--5---7--7--7--7--7

6|---5--5--5--5--5--5---3--3--3--3--3--3--3---5--5--5--5--5

 

1|-------------------------------------------------------|

2|-------------------------------------------------------|

3|---7--7--7--7--7--7------------------------------------|

4|---7--7--7--7--7--7---9-9-9-9-9-9--10-10-10-10-10-10-10|

5|---5--5--5--5--5--5---9-9-9-9-9-9--10-10-10-10-10-10-10|

6|----------------------7-7-7-7-7-7---8--8--8--8--8--8--8|

 

Play intro(distorted)

 

chorous

 

 

any prob email me to xtremesurfer69@hotmail.com

 

 

later =op~

 

 

Return to my Good Charlotte tabs page

The Tablature is Copyright its respective owners.

Sign Up For My Newsletter
Subscribe | Unsubscribe

Site Map | Disclaimer | Privacy Policy | Media Kit | Submissions/Corrections

Website © 2000-2014 mattsmusicpage.com. All rights reserved.

Legal & DMCA: Matt's Music Page has been providing lyrics and tabs in a legal way, paying royalties each year to a few organizations. Then, all lyrics and tabs were removed from the site. Now, there's a new owner to the site, which purchased it August 26, 2014, and he is in negotiation to obtain licensing from BMI at the moment. If you have a specific DMCA request -- please do not hesitate to contact me via the contact button on top. I will do my very best to keep this site fully legal.

Get our toolbar!