Your One-Stop Source For
Music Lyrics
Bass and Guitar Tabs
and More...
Music Lyrics Bass and Guitar Tabs

 

The Good Charlotte Guitar Tabs Are Below

Learn To Read Tab
Chords Handbook
Corrections & Additions
Get Official Tab
Good Charlotte tabs @ 911Tabs

Artist: Good Charlotte

Song: Dance Floor Anthem

Album: Good Morning Revival

Tabbed By: wcft01@hotmail.com

 

~ = vibrato

\ = Slide Down

/ = slide Up

^ = Bend String

x = Mute String (Dead Note)

* = Harmonic

> = Let Ring

. = Palm Mute

 

Standard Tuning (EADGBE)

 

 

INTRO

 

Guitar 1

E-----------|-----------|-----------|---------------------|

B-----------|-----------|-----------|-****-****-----------|

G-3-3-3-----|-3-3-3-----|-3-3-3-----|-9999-7777-****-****-|

D-1-1-1-----|-1-1-1-----|-1-1-1-----|-----------9999-7777-|

A-----------|-----------|-----------|---------------------|

E-----------|-----------|-----------|---------------------|

 

E------------------|------------------|

B------------------|------------------|

G-16---20-18-16-15-|-16---20-18-16-18-|

D-x----x--x--x--x--|-x----x--x--x--x--|

A-14---18-16-14-13-|-14---18-16-14-16-|

E------------------|------------------|

 

Guitar 2 (comes in after harmonics)

E-----------------| |-----------------| |-----------------|

B-----------------| x2 |-----------------| x2 |-----------------| x2

G-4-4-4-4-4-4-4-4-| |-8-8-8-8-8-8-8-8-| |-4-4-4-4-4-4-4-4-|

D-4-4-4-4-4-4-4-4-| |-8-8-8-8-8-8-8-8-| |-4-4-4-4-4-4-4-4-|

A-2-2-2-2-2-2-2-2-| |-6-6-6-6-6-6-6-6-| |-2-2-2-2-2-2-2-2-|

E-----------------| |-----------------| |-----------------|

 

E-----------------|

B-----------------|

G-6-6-6-6-6-6-6-6-|

D-6-6-6-6-6-6-6-6-|

A-4-4-4-4-4-4-4-4-|

E-----------------|

 

 

VERSE 1

. . . . . . . . . . . . . . . . . . . . . . . .

E---------|-----------------|-----------------|-----------------|

B---------|-----------------|-----------------|-----------------|

G-8>------|-----------------|-----------------|-----------------|

D---------|-----------------|-----------------|-----------------|

A---------|-6-6-6-6-6-6-6-6-|-6-6-6-6-6-6-6-6-|-4-4-4-4-4-4-4-4-|

E---------|-----------------|-----------------|-----------------|

. . . . . . . . . . . . . . . . . . . . . . . .

. . . . . . . . . . . . . . . . . . . . . . . .

E-----------------|-----------------|-----------------|

B-----------------|-----------------|-----------------|

G-----------------|-----------------|-----------------|

D-----------------|-----------------|-----------------|

A-4-4-4-4-4-4-4-4-|-9-9-9-9-9-9-9-9-|-9-9-9-9-9-9-9-9-|

E-----------------|-----------------|-----------------|

. . . . . . . . . . . . . . . . . . . . . . . .

. . . . .

E-------------------|

B-------------------|

G-------------------|

D-------------------|

A-----------99-11\--|

E-7-7-7-7-7-77-9-\--|

. . . . .

 

 

CHORUS

 

Guitar 1

E------------------|-------------|

B------------------|-------------| x2

G-16---20-18-16-15-|-16----18----|

D-x----x--x--x--x--|-x-----x-----|

A-14---18-16-14-13-|-14----16----|

E------------------|-------------|

 

Guitar 2

E-----------------| |-----------------| x3

B-----------------| x2 |-----------------| x2

G-4-4-4-4-4-4-4-4-| |-8-8-8-8-8-8-8-8-|

D-4-4-4-4-4-4-4-4-| |-8-8-8-8-8-8-8-8-|

A-2-2-2-2-2-2-2-2-| |-6-6-6-6-6-6-6-6-|

E-----------------| |-----------------|

 

E-----------------|

B-----------------| x2

G-6-6-6-6-6-6-6-6-|

D-6-6-6-6-6-6-6-6-|

A-4-4-4-4-4-4-4-4-|

E-----------------|

 

 

POST CHORUS 1

 

E-----------|

B-----------|

G-----------|

D-8-8-8\----|

A-6-6-6\----|

E-----------|

 

 

VERSE 2

 

Guitar 1

. . . . . . . . . . . . . . . . . . . . . . . .

E-----------------|-----------------|-----------------|

B-----------------|-----------------|-----------------|

G-----------------|-----------------|-----------------|

D-----------------|-----------------|-----------------|

A-6-6-6-6-6-6-6-6-|-6-6-6-6-6-6-6-6-|-4-4-4-4-4-4-4-4-|

E-----------------|-----------------|-----------------|

. . . . . . . . . . . . . . . . . . . . . . . .

. . . . . . . . . . . . . . . . . . . . . . . .

E-----------------|-----------------|-----------------|

B-----------------|-----------------|-----------------|

G-----------------|-----------------|-----------------|

D-----------------|-----------------|-----------------|

A-4-4-4-4-4-4-4-4-|-9-9-9-9-9-9-9-9-|-9-9-9-9-9-9-9-9-|

E-----------------|-----------------|-----------------|

. . . . . . . . . . . . . . . . . . . . . . . .

. . . . . . . . . . . . . . . . . . . . . . . .

E-----------------|-----------------|-----------------|

B-----------------|-----------------|-----------------|

G-----------------|-----------------|-----------------|

D-----------------|-----------------|-----------------|

A-----------------|-----------------|-6-6-6-6-6-6-6-6-|

E-7-7-7-7-7-7-7-7-|-7-7-7-7-7-7-7-7-|-----------------|

. . . . . . . . . . . . . . . . . . . . . . . .

. . . . . . . . . . . . . . . . . . . . . . . .

E-----------------|-----------------|-----------------|

B-----------------|-----------------|-----------------|

G-----------------|-----------------|-----------------|

D-----------------|-----------------|-----------------|

A-6-6-6-6-6-6-6-6-|-4-4-4-4-4-4-4-4-|-4-4-4-4-4-4-4-4-|

E-----------------|-----------------|-----------------|

. . . . . . . . . . . . . . . . . . . . . . . .

. . . . . . . . . . . . . . . . . . . . .

E-----------------|-----------------|-------------------|

B-----------------|-----------------|-------------------|

G-----------------|-----------------|-------------------|

D-----------------|-----------------|-------------------|

A-9-9-9-9-9-9-9-9-|-9-9-9-9-9-9-9-9-|-----------99-11\--|

E-----------------|-----------------|-7-7-7-7-7-77-9-\--|

. . . . . . . . . . . . . . . . . . . . .

 

 

Guitar 2 (comes in halfway through Verse)

E----------------|---------------|---------------------|----------|

B----------------|---------------|---------------------|----------|

G----------------|---------------|---------------------|----------|

D-8-8---8---888--|-6-6---6---666-|-11-11---11---111111-|----------|

A-6-6---6---666--|-4-4---4---444-|-9--9----9----9-9-9--|-9-9------|

E----------------|---------------|---------------------|-7-7------|

 

 

<<REPEAT CHORUS>>

 

 

POST CHORUS 2

 

Guitar 1

E---------------------------|

B---------------------------| x4

G-------------------13------|

D-/11-11-1111-11-11----11~\-|

A-/9--9--9-9--9--9----------|

E---------------------------|

 

Guitar 2

........

E----------|

B----------| * Heard throughout Post Chorus

G-66666666-|

D----------|

A----------|

E----------|

........

 

BRIDGE

 

Guitar 1

. . . . . . . . . . . . . . . .

E-----------------|-----------------|

B-----------------|-----------------| x3

G-6-6-6-6-6-6-6---|-----------------|

D---------------6-|-6-6-6-8-8-8-8-8-|

A-----------------|-----------------|

E-----------------|-----------------|

. . . . . . . . . . . . . . . .

 

. . . . . . .

E-----------------|-----------------|

B-----------------|-----------------|

G-6-6-6-6-6-6-6---|-----------------|

D---------------6-|-6-6-6-6-6-6-6-6-|

A---------------4-|-4-4-4-4-4-4-4-4-|

E-----------------|-----------------|

. . . . . . .

 

E----------------|---------------|----------------------|

B----------------|---------------|----------------------|

G----------------|---------------|----------------------|

D-8-8---88--888--|-6-6---66--666-|-11-11---1111--111111-|

A-6-6---66--666--|-4-4---44--444-|-9--9----9-9---9-9-9--|

E----------------|---------------|----------------------|

 

E--------------|

B--------------|

G--------------|

D--------------|

A-9-9--999-11\-|

E-7-7--777-9-\-|

 

 

<<REPEAT CHORUS + POST CHORUS>>

 

 

End On

E------------|

B------------|

G------------|

D-11\--------|

A-9-\--------|

E------------|

 

Return to my Good Charlotte Guitar Tabs page

The Tablature is Copyright its respective owners.

Sign Up For My Newsletter
Subscribe | Unsubscribe

Site Map | Disclaimer | Privacy Policy | Media Kit | Submissions/Corrections

Website © 2000-2014 mattsmusicpage.com. All rights reserved.

Get our toolbar!