Your One-Stop Source For
Music Lyrics
Bass and Guitar Tabs
and More...
>Music Lyrics Bass and Guitar Tabs

 

The Tabs Are Below

Learn To Read Tab
Chords Handbook
Corrections & Additions
Get Official Tab
Good Charlotte tabs @ 911Tabs

G--------------------------

D--------------------------

A------88/66/4444----------

E--------------------------

 

G-----------------------------------------------------------

D-----------------------------------------------------------

A-----4-4-44--6-6-66-8-8-88-6-6-66-4-4-44-6-6-66-88888888---

E-----------------------------------------------------------

 

G-----------------------------------------------------------

D-----------------------------------------------------------

A--3--1--3------3--1----

E-----------4----------4

 

 

Return to my Good Charlotte bass tabs page

The Tablature is Copyright its respective owners.

Sign Up For My Newsletter
Subscribe | Unsubscribe

Site Map | Disclaimer | Privacy Policy | Media Kit | Submissions/Corrections

Website © 2000-2014 mattsmusicpage.com. All rights reserved.

Legal & DMCA: Matt's Music Page has been providing lyrics and tabs in a legal way, paying royalties each year to a few organizations. Then, all lyrics and tabs were removed from the site. Now, there's a new owner to the site, which purchased it August 26, 2014, and he is in negotiation to obtain licensing from BMI at the moment. If you have a specific DMCA request -- please do not hesitate to contact me via the contact button on top. I will do my very best to keep this site fully legal.

Get our toolbar!

 

1933 Press Photo Special amplifier for demonstration of military radio
$19.99
1933 Press Photo Special amplifier for demonstration of military radio picture


VINTAGE RCA VICTOR MODEL 45-EY-2 45 RPM RECORD PLAYER MONO TUBE AMPLIFIER
$40.0
VINTAGE RCA VICTOR MODEL 45-EY-2 45 RPM RECORD PLAYER MONO TUBE AMPLIFIER  picture


PAUL REVERE & THE RAIDERS ( VOX AMPLIFIERS ) ORIG 1965 Vintage US Magazine Ad NM
$15.96
PAUL REVERE & THE RAIDERS ( VOX AMPLIFIERS ) ORIG 1965 Vintage US Magazine Ad NM picture


Tube NIB 6A6 RCA amp radio amplifier ham
$12.99
Tube NIB  6A6  RCA  amp radio amplifier ham picture


DeForest Priess Amplifier Name Plate for D-10 or Similar Receiver, 1923
$14.99
DeForest Priess Amplifier Name Plate for D-10 or Similar Receiver, 1923 picture