Your One-Stop Source For
Music Lyrics
Bass and Guitar Tabs
and More...
>Music Lyrics Bass and Guitar Tabs

 

The Tabs Are Below

Learn To Read Tab
Chords Handbook
Corrections & Additions
Get Official Tab
Good Charlotte tabs @ 911Tabs

Band: Good Charlotte

Song: Walk Away (Murder)

Album: The Chronicles Of Life And Death

Tuning 4-string: E A D G

tabbed By ClosedRoad

 

Note: ~= let Note Ring

p= Pull Off

h= hammer on

PM= Palm Mute

(16x)= hit note 16x

 

Intro

G -------------------|-----------------------------------|

D -------------------|-----------------------------------|

A -------------------|-----------------------------------|

E -11----11-22-66-44-|-111222666444444-1112226664444444--|

 

Verse

G ------------------------------------------------------------------------------|

D ------------------------------653---------------------------------------------|

A ----------------------------------53------------------44444444h6p44h6p44h6p4--| 2x

E -6666666666666666-44444444444--------2222222222222222-------------------------|

 

pre-Chorus

G ----2x------|------1x---------|

D ------------|-----------------|

A -11---11----|-11~----11~------|

E ---22---22--|----22~----22~---|

 

Chorus

G -------------------------------------------------------|

D -------------------------------------------------------|

A -4(16x)----------1(16x)--------------------------------|

E -----------2(16x)---------11-22-66-44--1112226664444~--|

 

verse

G ------------------------------------------------------------|

D ------------------------------------------------------------|

A -------------653----------------------444444444h6p5444h6p4--|

E -444444444444-----4p2222222222222222------------------------|

 

G ----------------------------------------------------------------------|

D ----------------------------------------------------------------------|

A --------------------------6--653--------------------4444444444444444--|

E -6666666666666666-44444444-44---44-2222222222222222-------------------|

 

Pre-Chorus 2x

 

Chorus

G -------------------------------------------------------------------------------------|

D -------------------------------------------------------------------------------------|

A -4(16x)--------1(16x)-------------4(16x)--------1(16x)-------------------------------|

E --------2(16x)--------11-22-66-44--------2(16x)--------11-22-66-44-1112226664444444--|

 

Bridge

G ---------------------|

D ---------------------|

A ---------------------|

E -2~---2~----1~---1~--|

 

G --------------------------------------------------------|

D --------------------------------------------------------|

A ----------------------------------------------00224444--|

E -6(16x)-4(16x)--2-2-2--1-1-1--6(16x)--44444444----------|

 

Bass bridge

G -----------------------------------------------------|

D -----------------------------------------------------|

A -4444444444444444------------------1111111111111111--|

E ------------------2222222222222222-------------------|

PM ..................................................

 

Chorus

G --------------------------------------------------------------------|

D --------------------------------------------------------------------|

A --------------4(16x)-------1(16x)-------------4(16x)--------1(16x)--|

E -11-22-66-44--------2(16x)--------11-22-66-44--------2(16x)---------|

 

End

G ----------------------------------------------------------------|

D ----------------------------------------------------------------|

A ----------------------------------------------------------------|

E -11-22-66-44--11122266644444444-11122266644444444-11-22-66-44~--|

 

That's it

Pretty difficult song but here it is

have Fun and Please Rate

Greetings ClosedRoad

 

 

Return to my Good Charlotte bass tabs page

The Tablature is Copyright its respective owners.

Sign Up For My Newsletter
Subscribe | Unsubscribe

Site Map | Disclaimer | Privacy Policy | Media Kit | Submissions/Corrections

Website © 2000-2014 mattsmusicpage.com. All rights reserved.

Legal & DMCA: Matt's Music Page has been providing lyrics and tabs in a legal way, paying royalties each year to a few organizations. Then, all lyrics and tabs were removed from the site. Now, there's a new owner to the site, which purchased it August 26, 2014, and he is in negotiation to obtain licensing from BMI at the moment. If you have a specific DMCA request -- please do not hesitate to contact me via the contact button on top. I will do my very best to keep this site fully legal.

Get our toolbar!

 


HARMONICA PLAYER by CHRIS Hammack 1998 "Spit 'n' Whittle" Cowboy Figurine
$
HARMONICA PLAYER by CHRIS Hammack 1998


Vintage U.S. Marine Band Engraved G Harmonica Made by M.Hohner Germany 1896
$
Vintage U.S. Marine Band Engraved G Harmonica Made by M.Hohner Germany 1896 picture


Superlux Dynamic Harmonica Microphone Pa System D112/C black
$
Superlux Dynamic Harmonica Microphone Pa System D112/C black picture


Hohner Harmonica Tourist Ely, MN BWCA
$
Hohner Harmonica Tourist Ely, MN BWCA  picture


Grand Ole Opry Souvenir Harmonica with Hard Case KEY OF C
$
Grand Ole Opry Souvenir Harmonica with Hard Case KEY OF C picture


Monopoly GO Sticker - Glass Harmonica (5⭐️) - Fast Delivery⚡ (Read Description)
$
Monopoly GO Sticker - Glass Harmonica (5⭐️) - Fast Delivery⚡ (Read Description) picture


COOL BEANS BLOWOUT: Vintage M Hoghner Special 20 Harmonica German w/ Case 06-348
$
COOL BEANS BLOWOUT: Vintage M Hoghner Special 20 Harmonica German w/ Case 06-348 picture


Postcard - Harmonica town of Trossingen, Germany
$
Postcard - Harmonica town of Trossingen, Germany picture


1950’s Beer Budweiser Harmonica Music Theme Magazine Ad
$
1950’s Beer Budweiser Harmonica Music Theme Magazine Ad picture


Antique Rotating Honer Harmonica Display Stand
$
Antique Rotating Honer Harmonica Display Stand picture