Your One-Stop Source For
Music Lyrics
Bass and Guitar Tabs
and More...
>Music Lyrics Bass and Guitar Tabs

 

The Tabs Are Below

Learn To Read Tab
Chords Handbook
Corrections & Additions
Get Official Tab
Good Charlotte tabs @ 911Tabs

By: Leon S.

 

~ = Hold note

p = Pull Off

h = Hammer On

> = 8x or quite a few times

/ = Astro Glide Slide

 

Bass at 0:39

 

Chorus Pt. 1

G|----------------------------------------------------------------------------|

D|----------------------------------------------------------------------------|

A|------33--55--3333-2-0-------33--55--3333-2-0--------3333--5555--3333-------|

E|--33---------------------33--------------------3333--------------------3333-|

 

Chorus Pt. 2 Verse

G|------------------------|---------------------------------------------------|

D|------------------------|---------------------------------------------------|

A|--3333--5555--3333------|--3h~--32h~--23h~--3------3h~--32h~--23h~--32p0----|

E|--------------------3~--|-3------------------3h~--3----------------------3h~|

 

Verse Cont. Pre-Chorus

G|-------------------------------------------|--------------------------------|

D|-------------------------------------------|--------------------------------|

A|--3h~--32h~--23h~--35------3h~--32h~--23h~-|5>--3>------5>--3>--------------|

E|-3-------------------3h~--3----------------|--------5>----------5>--(10)>>/-|

 

Chorus Pt. 1

G|----------------------------------------------------------------------------|

D|----------------------------------------------------------------------------|

A|------33--55--3333-2-0-------33--55--3333-2-0--------3333--5555--3333-------|

E|--33---------------------33--------------------3333--------------------3333-|

 

 

Chorus Pt. 2 Verse

G|------------------------|---------------------------------------------------|

D|--------------56p5------|---------------------------------------------------|

A|-3333--5555--------320--|------3333--5555--3333------3333--5555--3333-------|

E|----------------------3-|-3333------------------3333-------------------3333-|

 

Verse Cont. Pre-Chorus

G|---------------------------------|------------------------------------------|

D|---------------------------------|------------------------------------------|

A|--3333--5555---3333--------3333--|5>--3>--5>--3>--5>/(17)>------------------|

E|---------------------3333--------|------------------------------------------|

 

Ending

G|----------------------------------------------------------------------------|

D|----------------------------------------------------------------------------|

A|------3333--5555--3333--------3333--5555--3333--------3333--5555--3333------|

E|-3333-------------------3333--------------------3333-------------------3333-|

 

Ending Cont.

G|----------------------------------------------------------------------------|

D|----------------------------------------------------------------------------|

A|--------3333--5555--3333-----------------3333-2-0---------------------------|

E|--3333---------------------33---33---33-------------3~----------------------|

 

100% correct tabbing. It took me at least 2 hours to hear every little detail.

Really fun song to play, enjoy.

 

 

Return to my Good Charlotte bass tabs page

The Tablature is Copyright its respective owners.

Sign Up For My Newsletter
Subscribe | Unsubscribe

Site Map | Disclaimer | Privacy Policy | Media Kit | Submissions/Corrections

Website © 2000-2014 mattsmusicpage.com. All rights reserved.

Legal & DMCA: Matt's Music Page has been providing lyrics and tabs in a legal way, paying royalties each year to a few organizations. Then, all lyrics and tabs were removed from the site. Now, there's a new owner to the site, which purchased it August 26, 2014, and he is in negotiation to obtain licensing from BMI at the moment. If you have a specific DMCA request -- please do not hesitate to contact me via the contact button on top. I will do my very best to keep this site fully legal.

Get our toolbar!

 


E. Howard #5 Banjo Clock
$
E. Howard #5 Banjo Clock picture


Vintage Cracker Jack Gumball Metal Prize Charm Banjo Guitar Instrument
$
Vintage Cracker Jack Gumball Metal Prize Charm Banjo Guitar Instrument picture


BLATZ BEER Banjo Player Repop " I'm from Milwaukee ... " Great REPRODUCTION
$
BLATZ BEER Banjo Player Repop


ANTIQUE NEW HAVEN WILLARD MODEL 30 DAY BANJO CLOCK RUNS & KEEPS TIME
$
ANTIQUE NEW HAVEN WILLARD MODEL 30 DAY BANJO CLOCK RUNS & KEEPS TIME picture


Miniature Musical Instrument Banjo in Original Case
$
Miniature Musical Instrument Banjo in Original Case picture


Halloween Magic Power Co. Animated Musical Skeleton Playing Banjo 12" Grave
$
Halloween Magic Power Co. Animated Musical Skeleton Playing Banjo 12


c1920 JUGGLERS W/ 6 BANJOS~VINTAGE PHOTO LETTERHEAD~ADER BROTHERS NOVELTY PROMO
$
c1920 JUGGLERS W/ 6 BANJOS~VINTAGE PHOTO LETTERHEAD~ADER BROTHERS NOVELTY PROMO picture


rare beer opener Figural "Banjo" perfect for the Banjo Picker in the crowd see
$
rare beer opener Figural


1972 Winston Cigarettes Magazine Ad 13"x10" Ephemera Vintage Couple Banjo Bubble
$
1972 Winston Cigarettes Magazine Ad 13


Halloween Skeleton with Banjo Spooky Animated Home Decor Figurine
$
Halloween Skeleton with Banjo Spooky Animated Home Decor Figurine picture