Your One-Stop Source For
Music Lyrics
Bass and Guitar Tabs
and More...
>Music Lyrics Bass and Guitar Tabs

 

The Tabs Are Below

Learn To Read Tab
Chords Handbook
Corrections & Additions
Get Official Tab
Good Charlotte tabs @ 911Tabs

LET ME GO - Good Charlotte

-------------------------------------------------------------------------------

 

By: cecilia punk_rawker@yourmom.com

 

iNTRo, VeRSe, CHoRus

G|---------------------------------------------------------------------------|

D|---------------------------------------------------------------------------|

A|---33--0-----------------------33--0---------------------------------------|

E|----------11---555---33--53-------------11---555---33--53------------------|

 

BRiDGe: (na na na na na...)

G|---------------------------------------------------------------------------|

D|---------------------------------------------------------------------------|

A|----3*----------3*-------3*---------3333333--------------------------------|

E|---------------------------------------------------------------------------|

 

G|---------------------------------------------------------------------------|

D|---------------------------------------------------------------------------|

A|---33--0-----------------------33--0---------------------------------------|

E|----------11---555---33--53-------------11---555---33--53------------------|

 

eNDiNG

G|---------------------------------------------------------------------------|

D|---------------------------------------------------------------------------|

A|------------------------2*-------------------------------------------------|

E|----1111-------3333--------------------------------------------------------|

 

* means hold

 

Really easy song. if you have any questions or comments, or you'd like to kick

my ass, email me at punk_rawker@yourmom.com.

 

 

Return to my Good Charlotte bass tabs page

The Tablature is Copyright its respective owners.

Sign Up For My Newsletter
Subscribe | Unsubscribe

Site Map | Disclaimer | Privacy Policy | Media Kit | Submissions/Corrections

Website © 2000-2014 mattsmusicpage.com. All rights reserved.

Legal & DMCA: Matt's Music Page has been providing lyrics and tabs in a legal way, paying royalties each year to a few organizations. Then, all lyrics and tabs were removed from the site. Now, there's a new owner to the site, which purchased it August 26, 2014, and he is in negotiation to obtain licensing from BMI at the moment. If you have a specific DMCA request -- please do not hesitate to contact me via the contact button on top. I will do my very best to keep this site fully legal.

Get our toolbar!

 

GILBERT 1807 BANJO CLOCK Needs REPAIR NOT WORKING
$60.0
GILBERT 1807 BANJO CLOCK  Needs REPAIR NOT WORKING picture


WDW-Dixie Landing's Resort Mickey Mouse Playing the Banjo Pin
$6.0
WDW-Dixie Landing's Resort Mickey Mouse Playing the Banjo Pin picture


american banjo clock case e howard type
$0.99
american banjo clock case e howard type picture


1995 David Frykman Collection Angel Banjo Old Bearded Man Figurine Coyne's & Co
$38.95
1995 David Frykman Collection Angel Banjo Old Bearded Man Figurine Coyne's & Co picture


VINTAGE 4 5/8" WINGSPAN BRASS FINISH METAL EAGLE FOR BANJO CLOCK (WORTH A L00K)
$14.99
VINTAGE 4 5/8