Your One-Stop Source For
Music Lyrics
Bass and Guitar Tabs
and More...
Music Lyrics Bass and Guitar Tabs

 

The Tabs Are Below

Learn To Read Tab
Chords Handbook
Corrections & Additions
Get Official Tab
Good Charlotte tabs @ 911Tabs

FESTIVAL SONG - Good Charlotte

-------------------------------------------------------------------------------

 

Tabbed By: Alex McClean (blink1eighty2uk@yahoo.co.uk)

 

Intro/Verse: Guitar only, Bass comes in at about 6 seconds.

 

VERSE: Repeat 10x

G |--------------------------------------

D |--------------------------------------

A |-5-5-5--5-5-5-------------------------

E |----------------5-5-5--3--3-3-3-------

 

CHORUS: Repeat 2x

G |------------------------------------------------------------------

D |------------------------------------------------------------------

A |-5-5-5-5-5-5-5-5--------------------------------------------------

E |------------------5-5-5-5-5-5-5-5-3-3-3-3-3-3-3-3-5-5-5-5-5-5-5-5-

 

VERSE 2 (same as first verse- Bass only)

 

BRIDGE: Repeat x2 (Your Future.....)

G |------------------------------------------------------------------

D |------------------------------------------------------------------

A |------------------------------------------------------------------

E |-7-7-7-7-5-5-5-5-3-3-3-3-5-5-5-5----------------------------------

 

Then

G |------------------------------------------------------------------

D |------------------------------------------------------------------

A |------------------------------------------------------------------

E |-7-7-7-7-7-7-7-7-5-5-5-5-5-5-5-5-3-3-3-3-3-3-3-3-0-0-0-0-0-0-0-0--

 

Guitar Only Chorus

 

CHORUS: Reapeat 4x

 

ENDING

G |-------------------------

D |-------------------------

A |-------------------------

E |-7-7-5---7-7-5---7-7-3---

 

Thats the whole song!

 

 

Return to my Good Charlotte bass tabs page

The Tablature is Copyright its respective owners.

Sign Up For My Newsletter
Subscribe | Unsubscribe

Site Map | Disclaimer | Privacy Policy | Media Kit | Submissions/Corrections

Website © 2000-2014 mattsmusicpage.com. All rights reserved.

Legal & DMCA: Matt's Music Page has been providing lyrics and tabs in a legal way, paying royalties each year to a few organizations. Then, all lyrics and tabs were removed from the site. Now, there's a new owner to the site, which purchased it August 26, 2014, and he is in negotiation to obtain licensing from BMI at the moment. If you have a specific DMCA request -- please do not hesitate to contact me via the contact button on top. I will do my very best to keep this site fully legal.

Get our toolbar!