Your One-Stop Source For
Music Lyrics
Bass and Guitar Tabs
and More...
Music Lyrics Bass and Guitar Tabs

 

The Tabs Are Below

Learn To Read Tab
Chords Handbook
Corrections & Additions
Get Official Tab
Good Charlotte tabs @ 911Tabs

Emotionless Bass tab by Good Charlotte

 

Song: "Emotionless"

Artist: Good Charlotte

Album: Young and the hopeless.

Tabbed By: Danny Brown

Email: danny_brown1988@hotmail.com

Tuning: Standard (E,A,D,G)

 

This not perfect but its enough to get you started im sure you can work out the rythem

strum pattern in the chorus, corrections please email them to me, also played with

not a pic.

 

Intro No Bass...... (GET A GUITARIST)

 

Verse

G----------------------------|

D----------------------------|

A-7-----5-----6-----7-----3--|

E----------------------------|

 

G----------------------|

D----------------------|

A-7-----5-----6----3---|

E----------------------|

 

G-----------------------------|

D-----------------------------|

A-7-----5-----6-----7-----3---|

E-----------------------------|

 

G-------------------------|

D-------------------------|

A-5-----3-----------------|

E--------------5-----3----|

 

G-------------------------|

D-------------------------|

A-7----------------3------|

E-------------------------|

 

Chorus

G------------------------------|

D------------------------------|

A------------------3—3---33----|

E--3--3---33-------------------| X4

 

Bridge

G--------------------------------------------|

D--------------------------------------------|

A--------------------------------------------|

E—5—5~~~~~--9—9~~~~~--3—3~~~~~--4—4~~~~~-----|

 

G--------------------------------------------|

D--------------------------------------------|

A--------------------------------------------|

E—5—5~~~~~--9—9~~~~~--3—3~~~~~--4—4~~~~~-----|

 

G--------------------------------------------|

D--------------------------------------------|

A--------------------------------------------|

E—5—5~~~~~--7—7~~~~~--9—9~~~~~---------------|

 

Play order

Intro (No Bass)

Verse x1

Chorus x4

Verse x1

Chorus x4

Bridge x1

Chorus x4

Outro (No Bass)

 

That's it Please rate.

 

 

Return to my Good Charlotte bass tabs page

The Tablature is Copyright its respective owners.

Sign Up For My Newsletter
Subscribe | Unsubscribe

Site Map | Disclaimer | Privacy Policy | Media Kit | Submissions/Corrections

Website © 2000-2014 mattsmusicpage.com. All rights reserved.

Legal & DMCA: Matt's Music Page has been providing lyrics and tabs in a legal way, paying royalties each year to a few organizations. Then, all lyrics and tabs were removed from the site. Now, there's a new owner to the site, which purchased it August 26, 2014, and he is in negotiation to obtain licensing from BMI at the moment. If you have a specific DMCA request -- please do not hesitate to contact me via the contact button on top. I will do my very best to keep this site fully legal.

Get our toolbar!