Your One-Stop Source For
Music Lyrics
Bass and Guitar Tabs
and More...
Music Lyrics Bass and Guitar Tabs

 

The Tabs Are Below

Learn To Read Tab
Chords Handbook
Corrections & Additions
Get Official Tab
Good Charlotte tabs @ 911Tabs

Everything is right except maybe the bridge

 

Intro X1

G|---------------

D|---------------

A|-4>------------

E|-----4>--2>--4>

 

Verse X2

G|--------------------------------

D|--------------------------------

A|444--4-----------444--4---------

E|-------4-44-444---------2-22-222

 

G|------------------

D|------------------

A|444-4-------------

E|------44-44-2>----

 

Pre-Chorus X1

 

G|--------------------------------

D|--------------------------------

A|--------4>--4>------------------

E|6>--2>----------6>--2>--4>--4>--

 

Chorus

 

G|--------------------------------

D|--------------------------------

A|4>--------------4>--------------

E|----4>--2>--4>------4>--2>--5554

 

G|-------------------------

D|-------------------------

A|4>--------------4>-------

E|----4>--2>--4>------4>--2

 

Intro 2X

 

Verse 2X

 

Prechorus X1

 

Chorus (dont play the variation, play the first 4 bars twice)

 

Bridge

 

G|-------------------------------

D|-------------------------------

A|-------------------------------

E|6>--4>--2>--4>--6>--4>--4>--4>-

 

Post Bridge THingy

 

G|--------------------------------

D|--------------------------------

A|4>------4>------4>--------------

E|----4>------2>------4>--2>--2>--

 

Outro Part 1 X6

G|----------------

D|----------------

A|4-4-4-----------

E|-----4---2-2-2H4

 

Part 2 X3

G|---------------- G|---------------

D|---------------- D|---------------

A|4>-------------- A|4>-----------4-

E|----4>--2>--4>-- E|----4>--2-4----

 

 

Return to my Good Charlotte bass tabs page

The Tablature is Copyright its respective owners.

Sign Up For My Newsletter
Subscribe | Unsubscribe

Site Map | Disclaimer | Privacy Policy | Media Kit | Submissions/Corrections

Website © 2000-2014 mattsmusicpage.com. All rights reserved.

Legal & DMCA: Matt's Music Page has been providing lyrics and tabs in a legal way, paying royalties each year to a few organizations. Then, all lyrics and tabs were removed from the site. Now, there's a new owner to the site, which purchased it August 26, 2014, and he is in negotiation to obtain licensing from BMI at the moment. If you have a specific DMCA request -- please do not hesitate to contact me via the contact button on top. I will do my very best to keep this site fully legal.

Get our toolbar!

 

VINTAGE SORRENTO MUSIC JEWELRY BOX
$45.0
VINTAGE SORRENTO MUSIC JEWELRY BOX picture


VINTAGE LACQUERED MUSIC BOX JAPAN
$25.99
VINTAGE LACQUERED MUSIC BOX JAPAN picture


Vintage Kehlsteinhaus Bavaria Germany Colorscope Cow Bell View Master Music Box
$8.99
Vintage Kehlsteinhaus Bavaria Germany Colorscope Cow Bell View Master Music Box picture


VINTAGE SCHMIDT Signed Collectible Musical Turning Clown
$9.99
VINTAGE  SCHMIDT Signed Collectible Musical Turning Clown picture


Vintage - Linen - Postcard - Stage - Radio City Music Hall - New York City
$3.75
Vintage - Linen - Postcard - Stage - Radio City Music Hall - New York City   picture