Your One-Stop Source For
Music Lyrics
Bass and Guitar Tabs
and More...
Music Lyrics Bass and Guitar Tabs

 

The Tabs Are Below

Learn To Read Tab
Chords Handbook
Corrections & Additions
Get Official Tab
Good Charlotte tabs @ 911Tabs

Good Charlotte---------------------------------------

-----------------The Anthem---------------------------------

I am only fourteen, but this does sound good to me. And I only have guitar one,

but I am looking to have two in a week or so. Here it goes.

 

Intro:

e---------------------------------------------------------------------

B---------------------------------------------------------------------

G---------------------------------------------------------------------

D-7-7-----------------------------------------------------------------

A-5-5--7-7--5-5--7-7---x2---------------------------------------------

E------5-5--3-3--5-5--------------------------------------------------

 

Verse(the part after he says"here we go"):

e---------------------------------------------------------------------

B---------------------------------------------------------------------

G---------------------------------------------------------------------

D-7-7-7-7-7-7---------------------------------------------------------

A-5-5-5-5-5-5--7-7-7-7-7-7--5-5-5-5-5-5--7-7-7-7-7-7------------------

E--------------5-5-5-5-5-5--3-3-3-3-3-3--5-5-5-5-5-5------------------

 

Pre Chorous:

e---------------------------------------------------------------------

B---------------------------------------------------------------------

G---------------------------------------------------------------------

D-------------------7-7-7-7-7-7-7-7-----------------------------------

A-9-9-9-9--5-5-5-5--5-5-5-5-5-5-5-5--9-9-9-9--5-5-5-5--7-7-7-7--------

E-7-7-7-7--3-3-3-3-------------------7-7-7-7--3-3-3-3--5-5-5-5--------

 

Chorous:

e---------------------------------------------------------------------

B---------------------------------------------------------------------

G---------------------------------------------------------------------

D-7-7-----------------------------------------------------------------

A-5-5--7-7--5-5--7-7--------------------------------------------------

E------5-5--3-3--5-5--------------------------------------------------

 

The rest of the song is mainly guitar two, but for this I think it is right.

Anything you want to say just e-mail me at StephanC88@aol.com

 

Return to my Good Charlotte tabs page

The Tablature is Copyright its respective owners.

Sign Up For My Newsletter
Subscribe | Unsubscribe

Site Map | Disclaimer | Privacy Policy | Media Kit | Submissions/Corrections

Website © 2000-2014 mattsmusicpage.com. All rights reserved.

Get our toolbar!