Your One-Stop Source For
Music Lyrics
Bass and Guitar Tabs
and More...
Music Lyrics Bass and Guitar Tabs

 

The Goldfinger Guitar Tabs Are Below

Learn To Read Tab
Chords Handbook
Corrections & Additions
Get Official Tab
Goldfinger tabs @ 911Tabs

"War" - Goldfinger

From the album "Hello, Destiny" (2008)

 

Intro

Am F Am F Am

e|-----------1--------------|--------------1-----5--------------------|

B|-1---------1--------------|---1----------1-----5--------------------|

G|-2---------2--------------|---2----------2-----5--------------------|

D|-2---------3-----2h3-2----|---2----------3-----7--------------------|

A|-0---3-2---3-----------3--|---0---3-2----3-----7--------------------|

E|---------3-1--------------|-----------3--1-----5--------------------|

"One by one, they all fall down..."

 

Riff A

e|------------------------------------------------------------------|

B|------------------------------------------------------------------|

G|------------------------------------------------------------------|

D|-2--4--5-----4--5---2--4--5-----5--4------------------------------|

A|-0--2--3--3--2--3---0--2--3--3--3--2------------------------------|

E|----------1------------------1------------------------------------|

 

Verse Chords

A5 F5 A5 F5 C5 A5 C5 [Riff A]

e|-----|------|----|------------|------|-----|-----|----------------------------|

B|-----|------|----|------------|------|-----|-----|----------------------------|

G|--2--|------|--2-|------------|---5--|--2--|--5--|----------------------------|

D|--2--|--3---|--2-|--3---------|---5--|--2--|--5--|--2--4--5-----4--5----------|

A|--0--|--3---|--0-|--3---------|---3--|--0--|--3--|--0--2--3--3--2--3----------|

E|-----|--1---|----|--1---------|------|-----|-----|-----------1----------------|

"I'm off to face the future..." "...how long must I stay here without you..."

 

Chorus Chords

C5 G5 A5 F5

e|--------------------------------------------------------------------|

B|--------------------------------------------------------------------|

G|--5-------------2---------------------------------------------------|

D|--5-----5-------2-------3-------------------------------------------|

A|--3-----5-------0-------3-------------------------------------------|

E|--------3---------------1-------------------------------------------|

"I will fight for something that I do believe in..."

 

Post-Chorus

pm.............

e|-------|------|-----------|--------------------------------------------|

B|-------|------|-----------|--------------------------------------------|

G|---5---|--2---|-----------|--------------------------------------------|

D|---5---|--2---|----7---5--|--3-----------------------------------------|

A|---3---|--0---|----7---5--|--3--3-3-3-3-3-3-3--------------------------|

E|-------|------|----5---3--|--1--1-1-1-1-1-1-1--------------------------|

"The world makes no mistakes..."

Click here to return to my Goldfinger Guitar Tabs page

The Goldfinger Guitar Tablature is Copyright its respective owners.

Sign Up For My Newsletter
Subscribe | Unsubscribe

Site Map | Disclaimer | Privacy Policy | Media Kit | Submissions/Corrections

Website © 2000-2014 mattsmusicpage.com. All rights reserved.

Get our toolbar!