Your One-Stop Source For
Music Lyrics
Bass and Guitar Tabs
and More...
Music Lyrics Bass and Guitar Tabs

 

The Tabs Are Below

Learn To Read Tab
Chords Handbook
Corrections & Additions
Get Official Tab
Goldfinger tabs @ 911Tabs

 

Goldfinger - Skiers Must Perish from HANG UPS.

Transcribed by Lev Malevanchik - LEVMAL@aol.com

 

*This is not finished; I just wanted to post something to get started*

 

INTRO muted

 

E E E E E E E F E E E E E E D A

E-----------------------------------------

B-----------------------------------------

G-----------------9-10---------------9-7--

D--2-2--2-2--2-2--9-10---2-2--2-2--2-9-7-7

A--2-2--2-2--2-2--7-8----2-2--2-2--2-7-5-7

E--0-0--0-0--0-0---------0-0--0-0--0-----5

 

VERSE - similar to intro

 

There's something bout the

 

Cold wind blowing across your face

E--------------------------------------

B--------------------------------------

G--------------------------------9-9-10

D--2---2-----2-------2-2----2----9-9-10

A--2---2-----2-------2-2----2----7-7-10

E--0---0-----0-------0-0----0----------

 

It's not the kill It's the thrill of the chase

E---------------------------------------------------

B---------------------------------------------------

G------------------------------------------9---7----

D--2-2-------------2-------------2-2-------9---7--7-

A--2-2-------------2-------------2-2-------7---5--7-

E--0-0-------------0-------------0-0--------------5-

 

It's like being in bed with the girl of your dreams

Or eating a pint of Ben & Jerry's ice cream

Well you can kick me in the knee with your ski or your boot

Well that's cool on your head all root

This is something that I will always cherish

Here to state the fact that Skiers Must Perish.

 

Return to my to my Goldfinger tabs page

The Tablature is Copyright its respective owners.

Sign Up For My Newsletter
Subscribe | Unsubscribe

Site Map | Disclaimer | Privacy Policy | Media Kit | Submissions/Corrections

Website © 2000-2014 mattsmusicpage.com. All rights reserved.

Legal & DMCA: Matt's Music Page has been providing lyrics and tabs in a legal way, paying royalties each year to a few organizations. Then, all lyrics and tabs were removed from the site. Now, there's a new owner to the site, which purchased it August 26, 2014, and he is in negotiation to obtain licensing from BMI at the moment. If you have a specific DMCA request -- please do not hesitate to contact me via the contact button on top. I will do my very best to keep this site fully legal.

Get our toolbar!